Misc Computer Games

Skyrim - Song Of The Dragonborn

Misc Computer Games

tabs Expert expert

by  MAR-GOBBO

save to print version add songbook text version e-mail correct tuner
chordsukulelecavacokeyboardtabbassdrumsharmonicaflute Guitar Pro
close

there isn't a video lesson for this song

chords

Skyrim - Song Of The Dragonborn

	  		
Pre-Intro (Repeat X 4): 

E ||------------------------|------------------------|------------------------|----------------------| 
B ||------------------------|------------------------|------------------------|----------------------| 
G ||------------------------|------------------------|------------------------|----------------------| 
D ||------------------------|------------------------|------------------------|----------------------| 
A ||2L----------------------|(2)-------------2-------|2L----------------------|(2)-------------2-----| 
E ||------------------------|------------------------|------------------------|----------------------| 

Intro (Repeat X 4): 

E |------------------------|------------------------|------------------------|------------------------| 
B |3-----------------------|0-------0-------0-------|2-------0-------0-------|0-------0-------2---3---| 
G |4-------4-------4-------|0-----------------------|2-----------------------|0-----------------------| 
D |4-----------------------|0-----------------------|2-----------------------|2-----------------------| 
A |5-----------------------|2-----------------------|0-----------------------|2-----------------------| 
E |------------------------|3-----------------------|------------------------|0-----------------------| 

Pre-Verse: 

E |------------------------| 
B |0-------0-------2---3---| 
G |------------------------| 
D |------------------------| 
A |------------------------| 
E |------------------------| 

Verse 1: 

E |------------------------|------------------------|------------------------|------------------------| 
B |------------------------|------------------------|------------------------|------------------------| 
G |------------------------|------------------------|0-----------------------|------------------------| 
D |------------------------|------------------------|2-----------------------|------------------------| 
A |2-----------2---2-------|2-------2-------2-------|2-----------2---2-------|2-------2-------2-------| 
E |------------------------|------------------------|0-----------------------|------------------------| 



E |------------------------|------------------------|------------------------|------------------------| 
B |0-----------------------|------------------------|------------------------|------------------------| 
G |0-----------------------|------------------------|2-----------------------|------------------------| 
D |0-----------------------|------------------------|2-----------------------|------------------------| 
A |2-----------------------|------------------------|4-----------------------|------------------------| 
E |3-----------3---3-------|3-------3-------3-------|5-----------5---5-------|5-------5-------5-------| 



E |------------------------|------------------------|------------------------|------------------------| 
B |0-----------------------|------------------------|8-----------------------|------------------------| 
G |------------------------|------------------------|------------------------|------------------------| 
D |------------------------|------------------------|------------------------|------------------------| 
A |------------------------|------------------------|7-----------------------|------------------------| 
E |7-----------7---7-------|7-------7-------7-------|7-----------7---7-------|7-------7-------7-------| 



E |------------------------|------------------------|0-----------------------|------------------------| 
B |0-----------------------|------------------------|2-----------------------|----------------3---2---| 
G |------------------------|------------------------|------------------------|------------------------| 
D |------------------------|------------------------|------------------------|------------------------| 
A |------------------------|------------------------|0-----------0---0-------|0-------0-------0-------| 
E |3-----------3---3-------|3-------3-------3-------|------------------------|------------------------| 

Chorus: 

E |------------------------|------------------------|------------------------|------------------------| 
B |0-----------------------|0-----------------------|0-----------------------|0---------------0-------| 
G |7---------------7---6---|7---------------7---6---|9-------7-------6-------|4-----------------------| 
D |9-----------------------|9-----------------------|7-----------------------|4-------------------7---| 
A |9-----------------------|9-----------------------|7-------0---------------|5-----------------------| 
E |7-------7---------------|7-------7---------------|9-----------------------|7-------7---------------| 



E |------------------------|------------------------|------------------------|------------------------| 
B |0---------------0-------|0-------------------0---|2-------3---------------|0---------------0-------| 
G |0-------------------2---|0---------------2-------|2---------------2-------|4-------------------6---| 
D |0-----------------------|2-----------------------|4-----------------------|4-----------------------| 
A |2-----------------------|2-----------------------|0-------0---------------|5-----------------------| 
E |--------3---------------|--------0---------------|------------------------|7-------7---------------| 



E |--------------------0---|2-----------------------|0-----------------------|------------------------| 
B |------------------------|----------------2---3---|--------3-------2-------|0---------------0-------| 
G |7-------7-------7-------|0-----------------------|2-----------------------|4-------------------2---| 
D |7-----------------------|0-----------------------|2-----------------------|4-----------------------| 
A |9-----------------------|2-----------------------|4-------0---------------|5-------2---------------| 
E |7-------7---------------|--------3---------------|5-----------------------|------------------------| 



E |------------------------|------------------------|------------------------|------------------------| 
B |0---------------0-------|0-------------------0---|2-------3---------------|0-----------------------| 
G |0-------------------2---|0---------------2-------|2---------------2-------|4-----------------------| 
D |0-----------------------|2-----------------------|2-----------------------|4-----------------------| 
A |2-----------------------|2-----------------------|0-------0---------------|5-----------------------| 
E |--------3---------------|--------0---------------|------------------------|------------------------| 

Verse 2: 

E |2-------2---2---2---2---|0-------0-------0-------|------------------------|------------------------| 
B |------------------------|------------------------|3-------3---3---3---3---|2-------2-------2-------| 
G |------------------------|------------------------|2-----------------------|------------------------| 
D |------------------------|------------------------|0-----------------------|2-------0-------2-------| 
A |------------------------|--------2-------4-------|------------------------|------------------------| 
E |------------------------|------------------------|------------------------|------------------------| 



E |2-------2---2---2---2---|------------------------|------------------------|------------------------| 
B |0-----------------------|5-------5-------5-------|------------------------|------------------------| 
G |------------------------|------------------------|7-------7---7---7---7---|6-------6-------6-------| 
D |4-------4---------------|4-----------------------|7-----------------------|--------0---------------| 
A |------------------------|--------2-------4-------|5-----------------------|7---------------4-------| 
E |------------------------|------------------------|------------------------|------------------------| 



E |--------2---2---2---2---|0-------0-------0-------|------------------------|------------------------| 
B |------------------------|------------------------|3-------3---3---3---3---|2-------2-------2-------| 
G |4-----------------------|------------------------|2-----------------------|--------0-------2-------| 
D |4-----------------------|4-----------------------|------------------------|4-----------------------| 
A |2-----------------------|--------2-------4-------|5-----------------------|------------------------| 
E |------------------------|------------------------|------------------------|------------------------| 



E |2-------2---2---2---2---|------------------------|------------------------|------------------------| 
B |------------------------|5-------5-------5-------|------------------------|------------------------| 
G |4-----------------------|--------2-------6-------|7-------7---7---7---7---|9-------9-------9-------| 
D |4-----------------------|4-----------------------|9-----------------------|------------------------| 
A |------------------------|------------------------|------------------------|------------------------| 
E |------------------------|------------------------|------------------------|------------------------| 



E |------------------------|------------------------|------------------------|------------------------| 
B |------------------------|------------------------|------------------------|------------------------| 
G |------------------------|------------------------|------------------------|------------------------| 
D |9-------9-------9-------|9-------9-------9-------|9-------9-------9-------|9-------9-------9-------| 
A |----------------7-------|------------------------|--------7---------------|------------------------| 
E |9-------10--------------|9-------7---------------|----------------9-------|9-------10--------------| 



E |------------------------|------------------------|------------------------|------------------------| 
B |------------------------|------------------------|------------------------|------------------------| 
G |------------------------|------------------------|------------------------|------------------------| 
D |9-------9-------9-------|9-------9-------9-------|9-------9-------9-------|9-------9-------9-------| 
A |------------------------|------------------------|--------7---------------|----------------7-------| 
E |9-------10--------------|9-------10--------------|----------------9-------|9-------10--------------| 



E |------------------------|------------------------|------------------------|------------------------| 
B |------------------------|------------------------|------------------------|------------------------| 
G |------------------------|------------------------|------------------------|------------------------| 
D |9-------9-------9-------|9-------9-------9-------|9-------9-------9-------|9-------9-------9-------| 
A |----------------7-------|------------------------|--------7---------------|----------------7-------| 
E |9-------10--------------|9-------10--------------|----------------9-------|9-------10--------------| 



E |------------------------|------------------------|------------------------|------------------------| 
B |------------------------|------------------------|------------------------|------------------------| 
G |4-----------------------|------------------------|------------------------|------------------------| 
D |4-----------4---4-------|4-------4-------4-------|5-----------5---5-------|5-------5-------5-------| 
A |------------------------|------------------------|3-----------------------|------------------------| 
E |2-----------2---2-------|2-------2-------2-------|3-----------3---3-------|3-------3-------3-------| 

Middle-8 (Repeat X2): 

E |2-----------------------|2-----------------------|2-----------------------|2-----------------------| 
B |0-----------------------|0-----------------------|0-----------------------|0-----------------------| 
G |------------------------|------------------------|------------------------|------------------------| 
D |4-----------------------|4-----------------------|4-----------------------|4-----------------------| 
A |2---------------2-------|2---------------2-------|2-----------------------|2-----------------------| 
E |------------------------|------------------------|3---------------3-------|------------------------| 

Verse 3: 

E |------------------------|------------------------|------------------------|------------------------| 
B |3-----------------------|2-----------------------|0-----------------------|------------------------| 
G |------------------------|------------------------|------------------------|------------------------| 
D |------------------------|------------------------|------------------------|------------------------| 
A |2-----------2---2-------|2-----------2---2-------|2-----------2---2-------|2-------2-------2-------| 
E |------------------------|------------------------|------------------------|------------------------| 



E |------------------------|------------------------|------------------------|------------------------| 
B |2L----------------------|(2)---------------------|------------------------|2-----------------------| 
G |------------------------|------------------------|2-----------------------|------------------------| 
D |------------------------|------------------------|------------------------|------------------------| 
A |0-----------0---0-------|-0----------0---0-------|0-----------0---0-------|0-------0-------0-------| 
E |------------------------|------------------------|------------------------|------------------------| 



E |------------------------|------------------------|------------------------|------------------------| 
B |3-----------------------|2-----------------------|0-----------------------|------------------------| 
G |4-----------------------|------------------------|------------------------|------------------------| 
D |------------------------|------------------------|------------------------|------------------------| 
A |2-----------2---2-------|2-----------2---2-------|2-----------2---2-------|2-------2-------2-------| 
E |------------------------|------------------------|------------------------|------------------------| 



E |0L----------------------|(0)---------------------|2-----------------------|0-----------------------| 
B |2L----------------------|(2)---------------------|------------------------|------------------------| 
G |2L----------------------|(2)---------------------|------------------------|------------------------| 
D |2L----------------------|(2)---------------------|------------------------|------------------------| 
A |0-----------0---0-------|-0----------0---0-------|0-----------0---0-------|0-------0-------0-------| 
E |------------------------|------------------------|------------------------|------------------------| 



E |------------------------|------------------------|------------------------|------------------------| 
B |0-----------------------|------------------------|------------------------|------------------------| 
G |------------------------|6-----------------------|7-----------------------|------------------------| 
D |0-----------------------|------------------------|0-----------------------|------------------------| 
A |9-----------------------|7-----------------------|9-----------------------|------------------------| 
E |7-----------7---7-------|7-----------7---7-------|7-----------7---7-------|7-------7-------7-------| 



E |------------------------|------------------------|------------------------|------------------------| 
B |6-----------------------|------------------------|2-----------------------|2-----------------------| 
G |------------------------|------------------------|------------------------|------------------------| 
D |7-----------------------|------------------------|0-----------------------|4-----------------------| 
A |9-----------------------|2-------2-------2-------|2-----------2---2-------|2-------2-------2-------| 
E |------------------------|------------------------|------------------------|------------------------| 



E |------------------------|------------------------|------------------------|------------------------| 
B |0-----------------------|------------------------|------------------------|------------------------| 
G |------------------------|6-----------------------|7-----------------------|------------------------| 
D |0-----------------------|------------------------|0-----------------------|------------------------| 
A |9-----------------------|7-----------------------|9-----------------------|------------------------| 
E |7-----------7---7-------|7-----------7---7-------|7-----------7---7-------|7-------7-------7-------| 



E |2-----------------------|------------------------|------------------------|------------------------| 
B |2-----------------------|------------------------|------------------------|2-----------------------| 
G |2-----------------------|------------------------|2-----------------------|------------------------| 
D |4-----------------------|------------------------|------------------------|------------------------| 
A |4-----------------------|------------------------|------------------------|------------------------| 
E |2-----------2---2-------|2-----------2---2-------|2-----------2---2-------|2-------2-------2-------| 

Bridge: 

E |------------------------|------------------------|------------------------|------------------------| 
B |0-------0---0---0---0---|0-------0---0---0---0---|0-------0-------0-------|0-------0-------0-------| 
G |------------------------|0-------0---0---0---0---|2-------2-------2-------|------------------------| 
D |------------------------|------------------------|------------------------|2-------2-------2-------| 
A |2-----------------------|------------------------|0-----------------------|------------------------| 
E |------------------------|3-----------------------|------------------------|0-----------------------| 



E |------------------------|------------------------|------------------------|------------------------| 
B |0-------0---0---0---0---|0-------0---0---0---0---|0-------0-------0-------|0-------0-------0-------| 
G |------------------------|0-------0---0---0---0---|2-------2-------2-------|------------------------| 
D |------------------------|------------------------|------------------------|2-------2-------2-------| 
A |2-----------------------|------------------------|0-----------------------|------------------------| 
E |------------------------|3-----------------------|------------------------|0-----------------------| 



E |------------------------|------------------------|------------------------|------------------------| 
B |3-------3---3---3---3---|3-------3---3---3---3---|2-------2-------2-------|0-------0-------0-------| 
G |4-------4---4---4---4---|4-------4---4---4---4---|2-------2-------2-------|------------------------| 
D |------------------------|------------------------|------------------------|2-------2-------2-------| 
A |2-----------------------|------------------------|0-------0-------0-------|------------------------| 
E |------------------------|3-----------------------|------------------------|0-----------------------| 



E |------------------------|------------------------|------------------------|------------------------| 
B |3-------3---3---3---3---|3-------3---3---3---3---|2-------2-------2-------|0-------0-------2-------| 
G |4-------4---4---4---4---|4-------4---4---4---4---|2-------2-------2-------|------------------------| 
D |------------------------|------------------------|------------------------|2-----------------------| 
A |2-----------------------|------------------------|0-------0-------0-------|--------2-------4-------| 
E |------------------------|3-----------------------|------------------------|0-------0-------0-------| 



E |------------------------|----------------0-------|2-----------------------|2-------2-------5-------| 
B |3-----------------------|3-------3---------------|0-----------------------|0-----------------------| 
G |------------------------|------------------------|------------------------|----------------2-------| 
D |4-----------------------|4-------0-------2-------|4-----------------------|4-------4---------------| 
A |5-----------------------|5-----------------------|------------------------|------------------------| 
E |------------------------|------------------------|------------------------|------------------------| 



E |------------------------|------------------------|------------------------|------------------------| 
B |5-----------------------|5-------3-------2-------|0-----------------------|0-------0---------------| 
G |6-----------------------|6-----------------------|------------------------|----------------6-------| 
D |7-----------------------|7-------0---------------|6-----------------------|6-----------------------| 
A |7-----------------------|7---------------4-------|7-----------------------|7-----------------------| 
E |------------------------|------------------------|7-----------------------|7-------7-------9-------| 



E |------------------------|----------------0-------|2-----------------------|2-------2-------5-------| 
B |3-----------------------|3-------3---------------|0-----------------------|0-----------------------| 
G |------------------------|------------------------|------------------------|----------------2-------| 
D |4-----------------------|4-------0-------2-------|4-----------------------|4-------4---------------| 
A |5-----------------------|5-----------------------|------------------------|------------------------| 
E |------------------------|------------------------|------------------------|------------------------| 



E |7-----------------------|7-------5-------9-------|7-----------------------|7-----------------------| 
B |0-----------------------|0-----------------------|------------------------|------------------------| 
G |0-----------------------|0---------------6-------|4-----------------------|4-------4-------6-------| 
D |------------------------|--------7---------------|------------------------|------------------------| 
A |------------------------|------------------------|------------------------|--------2-------4-------| 
E |------------------------|------------------------|------------------------|------------------------| 

Pre-Chorus 

E |10--------------9-------|--------7---------------|5-----------------------|------------------------| 
B |------------------------|--------0---------------|----------------8-------|--------7---------------| 
G |7---------------6-------|------------------------|------------------------|------------------------| 
D |------------------------|------------------------|7---------------5-------|------------------------| 
A |------------------------|------------------------|5-----------5-----------|5---------------5-------| 
E |7-----------7-----------|7---------------7-------|7-----------7-----------|7---------------7-------| 



E |------------------------|------------------------|------------------------|------------------------| 
B |5-----------------------|----------------7-------|------------------------|----------------3-------| 
G |------------------------|--------7---------------|9-----------------------|--------------------6---| 
D |------------------------|--------0---------------|------------------------|------------------------| 
A |7-----------------------|----------------9-------|7-----------------------|------------------------| 
E |7-----------7---7-------|7-------7-------7-------|5-----------5---5-------|5-------5-------5-------| 

Chorus (Same as previous except the last bar): 

E |------------------------|------------------------|------------------------|------------------------| 
B |0-----------------------|0-----------------------|0-----------------------|0---------------0-------| 
G |7---------------7---6---|7---------------7---6---|9-------7-------6-------|4-----------------------| 
D |9-----------------------|9-----------------------|7-----------------------|4-------------------7---| 
A |9-----------------------|9-----------------------|7-------0---------------|5-----------------------| 
E |7-------7---------------|7-------7---------------|9-----------------------|7-------7---------------| 



E |------------------------|------------------------|------------------------|------------------------| 
B |0---------------0-------|0-------------------0---|2-------3---------------|0---------------0-------| 
G |0-------------------2---|0---------------2-------|2---------------2-------|4-------------------6---| 
D |0-----------------------|2-----------------------|4-----------------------|4-----------------------| 
A |2-----------------------|2-----------------------|0-------0---------------|5-----------------------| 
E |--------3---------------|--------0---------------|------------------------|7-------7---------------| 



E |--------------------0---|2-----------------------|0-----------------------|------------------------| 
B |------------------------|----------------2---3---|--------3-------2-------|0---------------0-------| 
G |7-------7-------7-------|0-----------------------|2-----------------------|4-------------------2---| 
D |7-----------------------|0-----------------------|2-----------------------|4-----------------------| 
A |9-----------------------|2-----------------------|4-------0---------------|5-------2---------------| 
E |7-------7---------------|--------3---------------|5-----------------------|------------------------| 



E |------------------------|------------------------|------------------------|------------------------| 
B |0---------------0-------|0-------------------0---|2-------3---------------|0---------------0-------| 
G |0-------------------2---|0---------------2-------|2---------------2-------|4---------------4-------| 
D |0-----------------------|2-----------------------|2-----------------------|4---------------4-------| 
A |2-----------------------|2-----------------------|0-------0---------------|5---------------5-------| 
E |--------3---------------|--------0---------------|------------------------|------------------------| 

Verse 4: 

E |------------------------|------------------------|------------------------|------------------------| 
B |7-----------------------|7-----------------------|7-----------------------|------------------------| 
G |4---------------4-------|4---------------4-------|4---------------4-------|4---------------4-------| 
D |4---------------4-------|4---------------4-------|4---------------4-------|4---------------4-------| 
A |5---------------5-------|5---------------5-------|5---------------5-------|5---------------5-------| 
E |------------------------|------------------------|------------------------|------------------------| 



E |------------------------|------------------------|------------------------|------------------------| 
B |7-----------------------|7-----------------------|7-----------------------|7L----------------------| 
G |4---------------4-------|4---------------4-------|4---------------4-------|4L----------------------| 
D |4---------------4-------|4---------------4-------|4---------------4-------|4L----------------------| 
A |5---------------5-------|5---------------5-------|5---------------5-------|5L----------------------| 
E |------------------------|------------------------|------------------------|------------------------| 



E |------------------------|------------------------| 
B |(7L)--------------------|(7L)--------------------| 
G |(4L)--------------------|(4L)--------------------| 
D |(4L)--------------------|(4L)--------------------| 
A |(5L)--------------------|(5L)--------------------| 
E |------------------------|------------------------| 

Outro: 

E |------------------------|------------------------|------------------------|------------------------| 
B |0-----------2-----------|3L----------------------|(3)---------------------|2L----------------------| 
G |------------------------|------------------------|------------------------|------------------------| 
D |------------------------|4L----------------------|(4)---------------------|------------------------| 
A |------------------------|------------------------|------------------------|------------------------| 
E |------------------------|------------------------|------------------------|------------------------| 



E |------------------------|2L----------------------|(2)---------------------|------------------------| 
B |(2)---------------------|0L----------------------|(0)---------------------|------------------------| 
G |------------------------|------------------------|------------------------|------------------------| 
D |------------------------|2L----------------------|(2)---------------------|------------------------| 
A |------------------------|------------------------|------------------------|2-----------------------| 
E |------------------------|------------------------|------------------------|------------------------| 



E |------------------------|------------------------|------------------------|7L----------------------| 
B |------------------------|------------------------|7-----------------------|8L----------------------| 
G |6-----------------------|7-----------------------|------------------------|7L----------------------| 
D |------------------------|------------------------|------------------------|9L----------------------| 
A |------------------------|------------------------|0-----------------------|------------------------| 
E |------------------------|------------------------|------------------------|------------------------| 



E |(7)---------------------|7-----------------------|5-----------------------|3-----------------------| 
B |(8)---------------------|------------------------|------------------------|------------------------| 
G |(7)---------------------|------------------------|------------------------|------------------------| 
D |(9)---------------------|------------------------|------------------------|------------------------| 
A |------------------------|------------------------|------------------------|------------------------| 
E |------------------------|------------------------|------------------------|------------------------| 



E |2-----------------------|0-----------------------|0L----------------------|(0)---------------------| 
B |------------------------|------------------------|0L----------------------|(0)---------------------| 
G |------------------------|------------------------|1L----------------------|(1)---------------------| 
D |------------------------|------------------------|2L----------------------|(2)---------------------| 
A |------------------------|------------------------|2L----------------------|(2)---------------------| 
E |------------------------|------------------------|0L----------------------|(0)---------------------| 



E |------------------------|------------------------|------------------------|------------------------| 
B |------------------------|------------------------|0L----------------------|(0)---------------------| 
G |------------------------|------------------------|------------------------|------------------------| 
D |2L----------------------|(2)---------------------|------------------------|------------------------| 
A |------------------------|------------------------|------------------------|------------------------| 
E |------------------------|------------------------|------------------------|------------------------| 



E |4L----------------------|(4)---------------------|------------------------|------------------------| 
B |------------------------|------------------------|------------------------|------------------------| 
G |------------------------|------------------------|------------------------|------------------------| 
D |------------------------|------------------------|------------------------|------------------------| 
A |------------------------|------------------------|------------------------|------------------------| 
E |------------------------|------------------------|0L----------------------|(0)------0--------------| 



E |------------------------|------------------------|------------------------|------------------------| 
B |------------------------|------------------------|------------------------|------------------------| 
G |------------------------|------------------------|------------------------|------------------------| 
D |------------------------|------------------------|------------------------|------------------------| 
A |------------------------|------------------------|------------------------|------------------------| 
E |0L----------------------|(0)---------------------|0L----------------------|(0)------0--------------| 



E |------------------------|------------------------| 
B |------------------------|------------------------| 
G |------------------------|------------------------| 
D |------------------------|------------------------| 
A |------------------------|------------------------| 
E |0L----------------------|(0)---------------------| 
		  

auto scroll beats size up size down change color hide chords drawings
tab show chords e-chords YouTube Clip e-chords hide all tabs e-chords go to top tab

share