Misc Computer Games

home > Misc Computer Game...

Overwatch - Winter Wonderland Theme Tab

Misc Computer Games

Difficulty: nolevelnolevel

by lucicamargo

tuner correct add songbook print version text version save to e-mail
chordsukulelecavacokeyboardtabbassdrumsharmonicsflute Guitar Pro
chords

Overwatch - Winter Wonderland Theme

	  
Intro 

    C       F           C F C        F           G 
e|------------------------|------------------------| 
B|-------8--6--5-----5----|-------8--6--5-----5--8-| 
G|----5-----------7-------|----5-----------7-------| 
D|-5--------------------5-|-5----------------------| 
A|------------------------|------------------------| 
E|------------------------|------------------------| 

    C       F           C F C        F           G 
e|------------------------|------------------------| 
B|-------8--6--5-----5----|-------8--6--5-----5--8-| 
G|----5-----------7-------|----5-----------7-------| 
D|-5--------------------5-|-5----------------------| 
A|------------------------|------------------------| 
E|------------------------|------------------------| 


Verse 

e|-------------------------8-|-8------7-8-10------8-| 
B|-5--5--6--6--8--8--6--8----|-----8----------8-----| 
G|--5--5--5--5--5--5--5--5---|----------------------| 
D|---------------------------|----------------------| 
A|---------------------------|----------------------| 
E|---------------------------|----------------------| 

e|------------------------5-6-7-8-|-8------7-8-10------8-| 
B|-5--5--6--6--8--8--6--8---------|-----8----------8-----| 
G|--5--5--5--5--5--5--5-----------|----------------------| 
D|--------------------------------|----------------------| 
A|--------------------------------|----------------------| 
E|--------------------------------|----------------------| 

  C             F               G 
e|-8--7--8---------------------------------| 
B|----------10--8--10--6--5--6-----5--6--8-| 
G|------------------------------7----------|  x2 
D|-----------------------------------------| 
A|-----------------------------------------| 
E|-----------------------------------------| 
	  

there isn't a video lesson for this song

request
Full key step upFull key step up
Half key step upHalf key step up
Half key step downHalf key step down
Full key step downFull key step down
Search Paypal
auto scroll beats size up size down change color hide chords drawings
tab show chords e-chords YouTube Clip e-chords hide all tabs e-chords go to top tab