Misc Computer Games

home > Misc Computer Game...

Far Cry 5 - Now That This Old World Is Ending Tab

Misc Computer Games

Difficulty: nolevelnolevel

by robepoiel

tuner correct add songbook print version text version save to e-mail
chordsukulelecavacokeyboardtabbassdrumsharmonicsflute Guitar Pro
chords

Far Cry 5 - Now That This Old World Is Ending

	                                    v           v 
e|----------------------------|-----------0--0L------------| 
B|--------1s-3--5s-3--1-------|--3-----------1L------------| 
G|--------2s------------------|--0-----------2L------------| 
D|--------2s------------------|--0-----------2L------------| 
A|----------------------------|--2-----------0L------------| 
E|----------------------------|--3-------------------------| 

                      v 
e|-----------------0----------|----------------------------| 
B|--------------3L----3L------|--3--1----------------------| 
G|--------------2L----0L------|--0-----2L----------2L------| 
D|--------------3L----0L------|--0-----0L----------0L------| 
A|--------------------x-------|--x-------------------------| 
E|--------------------3L------|--3-------------------------| 

                                 v           v 
e|----------------------------|--5--------3--0L------------| 
B|--------1--3--5--3--1-------|--x-----------1L------------| 
G|--2-----2L------------------|--5-----------0L------------| 
D|--0-----2L------------------|--3-----------2L------------| 
A|----------------------------|--------------3L------------| 
E|----------------------------|----------------------------| 

                      v                v                      v 
e|--0--------------0----------|----------------------------|--0L---| 
B|--1-----------3L-3--3L------|--3--1--3L----------3-------|--1L---| 
G|--0-----------2L-2--0L------|--0-----0L----------0-------|--2L---| 
D|--2-----------3L-3--0L------|--0-----0L----------0-------|--2L---| 
A|--3-----------------x-------|--x-----2L----------2-------|--0L---| 
E|--------------------3L------|--3-----3L----------3-------|-------| 

                v 
e|--0-------------------------|-------|----------------------------|-------| 
B|--1-----3--1--1L------------|--1----|----------------------------|-------| 
G|--2-----------2L------------|--2----|----------------------------|-------| 
D|--2-----------2L------------|--2----|--0--2--0-------------------|-------| 
A|--0-----------0L------------|--0----|-----------------3--0L------|--0----| 
E|--------3L-3----------------|-------|--3L-3--3-----------0L------|--0----| 

    v        v          v 
e|--0L----0--3L---|--3--5----|----------------------------| 
B|--1L----1--1L---|--1--5----|----------------------------| 
G|--2L----2--2L---|--2--5----|--------------2L-2L-2--2----| 
D|--2L----2--2L---|--2--7----|--------2--5--------3-------| 
A|--0L----0--0L---|--0--7----|--3--5-----------3----------| 
E|----------------|-----5----|--------------1-------------| 


e|-----------5--3L-3--0L-0----|----------------------------| 
B|--1L-1L-1--6-----------1----|--3-----1L-1----------------| 
G|-----2--5-----------0-------|--------0L-0--2--------2----| 
D|-----2L-2L-2-----2----------|-----2--------------3-------| 
A|--------------3-------------|--2--------------3----------| 
E|----------------------------|--------------1-------------| 


e|-----------1--0L-0--1L-1----|--------0L-0----------------| 
B|--1-----1--------------1----|--3L-3--3-----1L-1L-1L-1----| 
G|-----2--------------0-------|-----2-----2-----------2----| 
D|-----------------2----------|--0-----------------3-------| 
A|--------------3-------------|-----------------3----------| 
E|----------------------------|--------------1-------------| 


e|-----------5--3L-3--0L-0----|--------0L-0--1L-1L-1L-1L---| 
B|--1L-1-----6-----------1----|--3L-3----------------------| 
G|-----2--5-----------0-------|--------0--------------2----| 
D|-----------------2----------|-----2-----2--------3-------| 
A|--------------3-------------|--2--------------3----------| 
E|----------------------------|--------------1-------------| 

                                             v 
e|--1L-1-----1--0L-0--1L-1----|--------0L-0--0-------------| 
B|--1-----1L-1-----------1----|--3L-3--------1-------------| 
G|-----2--------------0-------|-----------0--2--------2----| 
D|-----------------2----------|--------0-----2-----2-------| 
A|--------------3-------------|-----2--------0--0----------| 
E|----------------------------|--3-------------------------| 

                v                v 
e|-----------------------0----|--0L-0L-0L-0----------------| 
B|--1-----------3-------------|--1L-1L-1L-1--1-------------| 
G|-----2--------0--------0----|--2--------2-----2----------| 
D|--------2-----0-----0-------|--2-----2-----------2-------| 
A|-----------0--2--2----------|--0--0-----------------0----| 
E|--------------3-------------|----------------------------| 

    v           v                v 
e|-----------0----------------|--------------1--0----------| 
B|--3L-3--3-----3L-3L-3--1----|--1L-1L-1--1--------3--1----| 
G|--2--2--------0L-0L-0--0----|--2-----2-------------------| 
D|--3-----------0-----0-------|--3--3----------------------| 
A|--------------2--2----------|--0-------------------------| 
E|--------------3-------------|--------------1L-1--3L-3----| 

    v                            v           v 
e|----------------------------|--1L-1L-1-----0L-0L-0L-0----| 
B|--1L-1L-1-----1-------------|--1-----------1-------------| 
G|--2--------2-----2----------|--2--------2--0-----0-------| 
D|--2-----2-----------2-------|--3-----3-----2--2----------| 
A|--0--0-----------------0----|--3--3--------3--------3----| 
E|----------------------------|--1-------------------------| 

                v                v 
e|--------------1-------------|--1-------------------------| 
B|--------------1-------------|--3--------1-----------3----| 
G|--0-----------2--------2----|--2-----2-----0--2--4-------| 
D|-----2-----2--3-----3-------|--0--0----------------------| 
A|--------3-----3--3----------|----------------------------| 
E|--------------1-------------|--------------3L-3L-3L-3L---| 

                v                            v                v     v 
e|--3--5--7--3--1L------------|--1--------5--3-----0-------|--------1L------| 
B|--------------1L------------|--1-----6-----1-------------|--3--1--1L------| 
G|--------------2L------------|--2--5--------0-------------|--0-----2L------| 
D|--------------3L------------|--3-----------2-------------|--0-----3L------| 
A|--------------3L------------|--3-----------3-------------|--2-----3L------| 
E|--3L-3L-3L-3--1L------------|--1-------------------------|--3-----1L------| 

                v                v     v                      v 
e|--1--------1--0-----1-------|-----0--1L------|--1--------5--3-----0-------| 
B|--1-----1-----1-------------|--3-----1L------|--1--------6--1-------------| 
G|--2--0--------0-------------|--2-----2L------|--2-----5-----0-------------| 
D|--3-----------2-------------|--0-----3L------|--3-----------2-------------| 
A|--3-----------3-------------|--------3L------|--3-----------3-------------| 
E|--1-------------------------|--------1L------|--1-------------------------| 

    v     v                      v                v                    v 
e|--0--0--1L------|--1--------1--0-----1-------|-----------------------5L---| 
B|--3-----1L------|--1-----1-----1-------------|--3L----------3--------5L---| 
G|--2-----2L------|--2-----------0-------------|--0L----------0-----5--5L---| 
D|--0-----3L------|--3-----------2-------------|--0L----------0--------7L---| 
A|--------3L------|--3-----------3-------------|--2L----------2--------7L---| 
E|--------1L------|--1-------------------------|--3L----------3--------5L---| 


e|--5----|| 
B|--5----|| 
G|--5----|| 
D|--7----|| 
A|--7----|| 
E|--5----|| 
	  

there isn't a video lesson for this song

request
Search Paypal
auto scroll beats size up size down change color hide chords drawings
tab show chords e-chords YouTube Clip e-chords hide all tabs e-chords go to top tab