Misc Computer Games

Fallout 4 - Rise And Prevail Tab

Misc Computer Games

Difficulty: nolevelnolevel

by bombaXXX

tuner correct add songbook print version text version save to e-mail
chordsukulelecavacokeyboardtabbassdrumsharmonicsflute Guitar Pro
close

there isn't a video lesson for this song

request
chords

Fallout 4 - Rise And Prevail

  		

Intro 

E|--------------------|-------------------|--------------------| 
B|--------------------|-------------------|--------------------| 
G|--------------------|-------------------|--------------------| 
D|--------------------|-------------------|--------------------| 
A|--------5-------5---|----5---5----------|--------5-------5---| 
E|--------5-------5---|----5---5----------|--------5-------5---| 
B|1-1-1-1-3---x-x-3---|x-x-3-*-3---1-1-1-1|1-1-1-1-3---x-x-3---| 

Verse 

E|----------------|----------------|----------------|----------------| 
B|----------------|----------------|----------------|----------------| 
G|----------------|----------------|----------------|----------------| 
D|----------------|----------------|------------3---|----2-----------| 
A|----5---5-------|----5-----------|------------3---|----2-----------| 
E|----5---5-------|----5-----------|------------1---|----0-----------| 
B|x-x-3-*-3-------|----3-----------|----------------|----------------| 

        D   D            D                        F        E 

E|----------------|----------------|----------------|----------------| 
B|----------------|----------------|----------------|----------------| 
G|----------------|----------------|----------------|----------------| 
D|----------------|------------7---|----5-----------|----------------| 
A|3---5-----------|------------7---|----5-----------|3---5-----------| 
E|3---5-----------|------------5---|----3-----------|3---5-----------| 
B|1---3-----------|----------------|----------------|1---3-----------| 

    C   D                        A        G            C   D 

E|----------------|----------------|----------------|----------------| 
B|----------------|----------------|----------------|----------------| 
G|----------------|----5-----------|----------------|----------------| 
D|------------9---|----5-------5---|----------------|----------------| 
A|------------9---|----3-------5---|--------3---5---|----------------| 
E|------------7---|------------3---|--------3---5---|----------------| 
B|----------------|----------------|--------1---3---|----------------| 

                B        C       G            C   D 

E|----------------|----------------|----------------| 
B|----------------|----------------|----------------| 
G|----7-------9---|----5-----------|----------------| 
D|----7-------9---|----5-----------|----------------| 
A|----5-------7---|----3-----------|3---5-----------| 
E|----------------|----------------|3---5-----------| 
B|----------------|----------------|1---3-----------| 

        D       E        C            C   D 

Bridge 

E|----------------|----------------|----------------|----------------| 
B|----------------|----------------|----------------|----------------| 
G|----------------|----------------|----------------|----------------| 
D|----------------|----8-------6---|----3-----------|------------5---| 
A|------------6---|----8-------6---|----3-----------|------------5---| 
E|------------6---|----6-------4---|----1-----------|------------3---| 
B|------------4---|----------------|----------------|----------------| 

                Eb       Bb      Ab       F                        G 

E|----------------|----------------|----------------|----------------| 
B|----------------|----------------|----------------|----------------| 
G|----------------|----------------|----------------|----------------| 
D|----------------|----------------|------------5---|----7-------8---| 
A|----------------|----3-------5---|------------5---|----7-------8---| 
E|----------------|----3-------5---|------------3---|----5-------6---| 
B|----------------|----1-------3---|----------------|----------------| 

                         C       D                G        A       Bb 

E|----------------|------------------|----------------|----------------| 
B|----------------|------------------|----------------|------------8---| 
G|----------------|------------------|----------------|------------7---| 
D|----------------|----10-------11---|----------------|------------5---| 
A|----------------|----10-------11---|----------------|----------------| 
E|----------------|-----8--------9---|----------------|----------------| 
B|----------------|------------------|----------------|----------------| 

                          C        Db                                G 

E|----------------|----------------|----------------|----------------| 
B|----------------|----------------|----------------|----------------| 
G|----------------|----7-------9---|----------------|----------------| 
D|----------------|----7-------9---|----------------|----------------| 
A|----------------|----5-------7---|------------3---|----5-------5---| 
E|----------------|----------------|------------3---|----5-------5---| 
B|----------------|----------------|------------1---|----3-------3---| 

                         D       E                C        D       D 

Refrain 

E|----------------|----------------| 
B|----------------|----------------| 
G|----------------|----------------| 
D|----------------|----------------| 
A|------------3---|----5-------5---| 
E|------------3---|----5-------5---| 
B|------------1---|----3-------3---| 

                C        D       D 

E|----------------|----------------|----------------|----------------| 
B|----------------|----------------|----------------|----------------| 
G|----------------|----------------|----------------|----------------| 
D|----------------|------------5---|----------------|----------------| 
A|----------------|------------5---|----------------|------------5---| 
E|----------------|------------3---|----------------|------------5---| 
B|----------------|----------------|----------------|------------3---| 

                                 G                                 D 

E|----------------|----------------| 
B|----------------|----------------| 
G|----------------|----------------| 
D|----------------|------------5---| 
A|----------------|------------5---| 
E|----------------|------------3---| 
B|----------------|----------------| 

                                 G 

Bridge 

E|----------------|----------------|----------------|----------------| 
B|----------------|----------------|----------------|----------------| 
G|----------------|----------------|----------------|----------------| 
D|----------------|------------5---|----------------|----------------| 
A|------6---------|------------5---|----------------|------------6---| 
E|------6---------|------------3---|----------------|------------6---| 
B|------4---------|----------------|----------------|------------4---| 

          Eb                     G                                 Eb 

E|----------------|----------------|----------------|-----------------| 
B|----------------|----------------|----------------|-----------------| 
G|----------------|----------------|----------------|-----------------| 
D|----------------|------------8---|----------------|------------10---| 
A|----------------|------------8---|----------------|------------10---| 
E|----------------|------------6---|----------------|-------------8---| 
B|----------------|----------------|----------------|-----------------| 

                                 Bb                                 C 

E|----------------|----------------|----------------|----------------| 
B|----------------|----------------|----------------|----------------| 
G|----------------|----------------|----------------|----------------| 
D|----------------|------------7---|----------------|----------------| 
A|----------------|------------7---|----------------|------------6---| 
E|----------------|------------5---|----------------|------------6---| 
B|----------------|----------------|----------------|------------4---| 

                                 A                                 Eb 

E|----------------|----------------|----------------|----------------| 
B|----------------|----------------|----------------|----------------| 
G|----------------|----------------|----------------|----------------| 
D|----------------|--------8-------|----------------|----------------| 
A|----------------|--------8-------|----------------|----4-----------| 
E|----------------|--------6-------|----------------|----4-----------| 
B|----------------|----------------|----------------|----2-----------| 

                             Bb                            Db 

E|----------------|----------------|----------------|----------------| 
B|----------------|----------------|----------------|----------------| 
G|----------------|----------------|----------------|----------------| 
D|----------------|----------------|----------------|----------------| 
A|----------------|6---------------|------------5---|----------------| 
E|----------------|6---------------|------------5---|----------------| 
B|----------------|4---------------|------------3---|----------------| 

                     Eb                           D 

Outro 

E|----------------|----------------| 
B|----------------|----------------| 
G|----------------|----------------| 
D|----------------|----------------| 
A|------------5---|----------------| 
E|------------5---|----------------| 
B|------------3---|----------------| 
                 
                D 

E|----------------|----------------|----------------|----------------| 
B|----------------|----------------|----------------|----------------| 
G|----------------|----------------|----------------|----------------| 
D|------------5---|----------------|----------------|----------------| 
A|------------5---|----------------|------------5---|----------------| 
E|------------3---|----------------|------------5---|----------------| 
B|----------------|----------------|------------3---|----------------| 

                G                                 D 

E|----------------|----------------|----------------|----------------| 
B|----------------|----------------|----------------|----------------| 
G|----------------|----------------|----------------|----------------| 
D|------------5---|----------------|----------------|----------------| 
A|------------5---|----------------|------------5---|----------------| 
E|------------3---|----------------|------------5---|----------------| 
B|----------------|----------------|------------3---|----------------| 

                G                                 D 

E|----------------|----------------|----------------|----------------| 
B|----------------|----------------|----------------|----------------| 
G|----------------|----------------|----------------|----------------| 
D|------------5---|----------------|----------------|----------------| 
A|------------5---|----------------|------------5---|----------------| 
E|------------3---|----------------|------------5---|----------------| 
B|----------------|----------------|------------3---|----------------| 

                G                                 D 

E|----------------|----------------|----------------|----------------| 
B|----------------|----------------|----------------|----------------| 
G|----------------|----------------|----------------|----------------| 
D|------------5---|----------------|----------------|----------------| 
A|------------5---|----------------|------------5---|----------------| 
E|------------3---|----------------|------------5---|----------------| 
B|----------------|----------------|------------3---|----------------| 

                G                                 D 

E|----------------|----------------|----------------|----------------| 
B|----------------|----------------|----------------|----------------| 
G|----------------|----------------|----------------|----------------| 
D|------------5---|----------------|----------------|----------------| 
A|------------5---|----------------|------------5---|----------------| 
E|------------3---|----------------|------------5---|----------------| 
B|----------------|----------------|------------3---|----------------| 

                G                                 D 

E|----------------|----------------|----------------|----------------| 
B|----------------|----------------|----------------|----------------| 
G|----------------|----------------|----------------|----------------| 
D|------------5---|----------------|----------------|----------------| 
A|------------5---|----------------|--------------5-|----------------| 
E|------------3---|----------------|--------------5-|----------------| 
B|----------------|----------------|--------------3-|----------------| 

                G                                   D 

E|----------------|----------------|----------------| 
B|----------------|----------------|----------------| 
G|----------------|----------------|----------------| 
D|----------------|----------------|----------------| 
A|--------------5-|----------------|----------------| 
E|--------------5-|----------------|----------------| 
B|--------------3-|----------------|----------------| 
  
                        D 
	  

Full key step upFull key step up
Half key step upHalf key step up
Half key step downHalf key step down
Full key step downFull key step down
Search Paypal
auto scroll beats size up size down change color hide chords drawings
tab show chords e-chords YouTube Clip e-chords hide all tabs e-chords go to top tab

share with facebook