Misc Computer Games

home > Misc Computer Game...

Dynasty Warriors 3 - Gravity Tab

Misc Computer Games

Difficulty: nolevelnolevel

by educastilho

tuner correct add songbook print version text version save to e-mail
chordsukulelecavacokeyboardtabbassdrumsharmonicsflute Guitar Pro
chords

Dynasty Warriors 3 - Gravity

	  
Main Riff 
E|--------|--------|--------|--------|--------|--------|--------|---------------------------------| 
B|--------|--------|--------|--------|--------|--------|--------|---------------------------------| 
G|--------|--------|--------|--------|--------|--------|--------|---------------------------------| 
D|--------|--------|-5------|-3------|--------|--------|--------|---------------------------------| 
A|-7------|-5------|-3------|-1------|-7------|-7------|--------|-2---2---2---3---3---3---3---5---| 
E|-5------|-3------|--------|--------|-5------|-5------|--------|-0---0---0---1---1---1---1---3---| 

E|---------------------------------|---------------------------------|---------------------------------| 
B|---------------------------------|---------------------------------|---------------------------------| 
G|---------------------------------|---------------------------------|---------------------------------| 
D|---------------------------------|---------------------------------|-----------------------------7---| 
A|-5---5---5---5---3---5---3---3---|-2---2---2---3---3---3---3---5---|-5---5---5---5-----------6-------| 
E|-3---3---3---3---1---3---1---1---|-0---0---0---1---1---1---1---3---|-3---3---3---3---0---5-----------| 

E|---------------------------------|---------------------------------|---------------------------------| 
B|---------------------------------|---------------------------------|---------------------------------| 
G|---------------------------------|---------------------------------|---------------------------------| 
D|---------------------------------|---------------------------------|---------------------------------| 
A|-2---2---2---3---3---3---3---5---|-5---5---5---5---3---5---3---3---|-2---2---2---3---3---3---3---5---| 
E|-0---0---0---1---1---1---1---3---|-3---3---3---3---1---3---1---1---|-0---0---0---1---1---1---1---3---| 

E|-----|---------------------------------|---------------------------------|---------------------------------| 
B|-----|---------------------------------|---------------------------------|---------------------------------| 
G|-----|---------------------------------|---------------------------------|---------------------------------| 
D|-----|---------------------------------|---------------------------------|---------------------------------| 
A|-----|-2---2---2---3---3---3---3---5---|-5---5---5---5---3---5---3---3---|-2---2---2---3---3---3---3---5---| 
E|-----|-0---0---0---1---1---1---1---3---|-3---3---3---3---1---3---1---1---|-0---0---0---1---1---1---1---3---| 

E|---------------------------------|---------------------------------|---------------------------------| 
B|---------------------------------|---------------------------------|---------------------------------| 
G|---------------------------------|---------------------------------|---------------------------------| 
D|-----------------------------7---|---------------------------------|---------------------------------| 
A|-5---5---5---5-----------6-------|-2---2---2---3---3---3---3---5---|-5---5---5---5---3---5---3---3---| 
E|-3---3---3---3---0---5-----------|-0---0---0---1---1---1---1---3---|-3---3---3---3---1---3---1---1---| 

E|---------------------------------|--------|---------------------------------|------------------------------| 
B|---------------------------------|--------|---------------------------------|------------------------------| 
G|---------------------------------|--------|---------------------------------|------------------------------| 
D|---------------------------------|--------|---------------------------------|-------------------------3----| 
A|-2---2---2---3---3---3---3---5---|--------|-------------4-----------5-------|-----4-----------5---4--------| 
E|-0---0---0---1---1---1---1---3---|--------|-3---3---3-------3---3-------3---|-3-------3---3----------------| 

E|---------------------------------|------------------------------|---------------------------------| 
B|---------------------------------|------------------------------|---------------------------------| 
G|---------------------------------|------------------------------|---------------------------------| 
D|---------------------------------|-------------------------3----|---------------------------------| 
A|-------------4-----------5-------|-----4-----------5---4--------|-------------4-----------5-------| 
E|-3---3---3-------3---3-------3---|-3-------3---3----------------|-3---3---3-------3---3-------3---| 

E|------------------------------|---------------------------|---------------------------| 
B|------------------------------|---------------------------|---------------------------| 
G|------------------------------|---------------------------|---------------------------| 
D|-------------------------3----|---------------------------|----------------------3----| 
A|-----4-----------5---4--------|-------------4--------5----|-----4--------5---4--------| 
E|-3-------3---3----------------|-3---3---3-----------------|---------------------------| 

E|--------|--------|--------|--------|--------|--------|--------|--------|--------| 
B|--------|--------|--------|--------|--------|--------|--------|--------|--------| 
G|--------|--------|--------|--------|--------|--------|--------|--------|--------| 
D|--------|--------|--------|--------|--------|--------|--------|--------|--------| 
A|-2------|-2------|-8------|-8------|-2------|-2------|-8------|-8------|-6------| 
E|-0------|-0------|-6------|-6------|-0------|-0------|-6------|-6------|-4------| 

E|--------|--------|--------|--------|--------|--------|--------|---------------------------------| 
B|--------|--------|--------|--------|--------|--------|--------|---------------------------------| 
G|--------|--------|--------|--------|--------|--------|--------|---------------------------------| 
D|--------|-7------|-7------|--------|--------|-7------|-7------|---------------------------------| 
A|-6------|-5------|-5------|-6------|-6------|-5------|-5------|-2---2---2---3---3---3---3---5---| 
E|-4------|--------|--------|-4------|-4------|--------|--------|-0---0---0---1---1---1---1---3---| 

E|---------------------------------|---------------------------------|------------------------------| 
B|---------------------------------|---------------------------------|------------------------------| 
G|---------------------------------|---------------------------------|------------------------------| 
D|---------------------------------|---------------------------------|-------------------------3----| 
A|-5---5---5---5---3---5---3---3---|-------------4-----------5-------|-----4-----------5---4--------| 
E|-3---3---3---3---1---3---1---1---|-3---3---3-------3---3-------3---|-3-------3---3----------------| 

E|---------------------------------|---------------------------------|---------------------------------| 
B|---------------------------------|---------------------------------|---------------------------------| 
G|---------------------------------|---------------------------------|---------------------------------| 
D|---------------------------------|---------------------------------|---------------------------------| 
A|-2---2---2---3---3---3---3---5---|-5---5---5---5---3---5---3---3---|-------------4-----------5-------| 
E|-0---0---0---1---1---1---1---3---|-3---3---3---3---1---3---1---1---|-3---3---3-------3---3-------3---| 

E|------------------------------|---------------------------------|---------------------------------| 
B|------------------------------|---------------------------------|---------------------------------| 
G|------------------------------|---------------------------------|---------------------------------| 
D|-------------------------3----|---------------------------------|---------------------------------| 
A|-----4-----------5---4--------|-2---2---2---3---3---3---3---5---|-5---5---5---5---3---5---3---3---| 
E|-3-------3---3----------------|-0---0---0---1---1---1---1---3---|-3---3---3---3---1---3---1---1---| 

E|---------------------------------|------------------------------|---------------------------------| 
B|---------------------------------|------------------------------|---------------------------------| 
G|---------------------------------|------------------------------|---------------------------------| 
D|---------------------------------|-------------------------3----|---------------------------------| 
A|-------------4-----------5-------|-----4-----------5---4--------|-2-----------2-----------2-------| 
E|-3---3---3-------3---3-------3---|-3-------3---3----------------|-0-----------0-----------0-------| 

E|---------------------------------|-----|---------------------------------|---------------------------------| 
B|---------------------------------|-----|---------------------------------|---------------------------------| 
G|---------------------------------|-----|---------------------------------|---------------------------------| 
D|---------------------------------|-----|---------------------------------|---------------------------------| 
A|-----2-----------2-------2-------|-----|-2---2---2---3---3---3---3---5---|-5---5---5---5---3---5---3---3---| 
E|-----0-----------0-------0-------|-----|-0---0---0---1---1---1---1---3---|-3---3---3---3---1---3---1---1---| 

E|---------------------------------|---------------------------------| 
B|---------------------------------|---------------------------------| 
G|---------------------------------|---------------------------------| 
D|---------------------------------|-----------------------------7---| 
A|-2---2---2---3---3---3---3---5---|-5---5---5---5-----------6-------| 
E|-0---0---0---1---1---1---1---3---|-3---3---3---3---0---5-----------| 
	  

there isn't a video lesson for this song

request
Search
auto scroll beats size up size down change color hide chords drawings
tab show chords e-chords YouTube Clip e-chords hide all tabs e-chords go to top tab