Misc Cartoons

home > Misc Cartoons

The Seven Deadly Sins - Eos 3 Taizai Tab

Misc Cartoons

Difficulty: nolevelnolevel

by IronPower4Ever

tuner correct add songbook print version text version save to e-mail
chordsukulelecavacokeyboardtabbassdrumsharmonicsflute Guitar Pro
chords

The Seven Deadly Sins - Eos 3 Taizai

  		Enjoy 

e|-------------------------------------------------------------------------------| 
B|---------------------------------4-1--3--3-1-1--1--------3-1-------------------| 
G|------3-2-3-----3-2-3-------0-2------------------3-3--0-3----2-3-2-0-0---------| 
D|------------0---------1----3---3------------------------------------3----------| 
A|-------------------------------------------------------------------------------| 
E|-------------------------------------------------------------------------------| 

e|-----------------------------------1-----------------------------------1-------| 
B|---------------------------------4----3--3-1-1--1-1-------3-1-1---3-1-3-1------| 
G|-----3-2-3------3-2-3-------0-2------------------3-3---0-3---0-0-3-------0-3---| 
D|-----------0----------1----3---3-----------------------------------------------| 
A|-------------------------------------------------------------------------------| 
E|-------------------------------------------------------------------------------| 

e|------------------------1-------------------1-3---1-------3-1---1-3-3-4--------| 
B|----------1-3-1--------4--1---4-3-4-3-1-3-4-----4---1-1-4----4-4-4-------------| 
G|-----3-0-3-----3-3----0---------------------------------------3----------------| 
D|------------3------------------------------------------------------------------| 
A|-------------------------------------------------------------------------------| 
E|-------------------------------------------------------------------------------| 

e|-----6-----------1-----------3-4-3-1------1--------1-6-3-1-3-------1-----------| 
B|----------4---------4----------------4--4---1--1-4-----------1---4-------------| 
G|--------------3----------3-----------------------------------------------------| 
D|-------------------------------------------------------------------------------| 
A|-------------------------------------------------------------------------------| 
E|-------------------------------------------------------------------------------| 
	  

Search Paypal
auto scroll beats size up size down change color hide chords drawings
tab show chords e-chords YouTube Clip e-chords hide all tabs e-chords go to top tab