Misc Cartoons

home > Misc Cartoons

The Little Mermaid - Kiss The Girl Tab

Misc Cartoons

Difficulty: nolevelnolevel

by IronPower4Ever

tuner correct add songbook print version text version save to e-mail
chordsukulelecavacokeyboardtabbassdrumsharmonicsflute Guitar Pro
chords

The Little Mermaid - Kiss The Girl

  		verse 1 
e|---3-------------------3-------------------------------0-------------------------------| 
B|---0---------------0---0-----------------------0---0---1---1---1---1-------------------| 
G|---0---0---2---2-------0---0---0---0---0---2-----------0-------------------------------| 
D|---0-------------------0-------------------------------2---------------2---2---2---2---| 
A|---2-------------------2-------------------------------3-------------------------------| 
E|---3-------------------3---------------------------------------------------------------| 
       There...        Sitting...                  She...                      But... 

|---------------3---------------2-------------------0-----------------------------------| 
|---1---1---3---0---0---3---3---3---3---3---0---0---1---1---1---1---1---1---0-----------| 
|---------------0---------------2-------------------0-----------------------------------| 
|---------------0---------------0-------------------2-----------------------------------| 
|---------------2-----------------------------------3-----------------------------------| 
|---------------3-----------------------------------------------------------------------| 
              -bout...         Don't...            Dyin'... 

|---3-----------------------------------------------------------------------------------| 
|---0---0-------------------------------------------------------------------------------| 
|---0-------2---0-----------------------------------------------------------------------| 
|---0-----------------------------------------------------------------------------------| 
|---2-----------------------------------------------------------------------------------| 
|---3-----------------------------------------------------------------------------------| 
       Kiss... 

verse 2 
|---3-------------------3---------------------------0-----------------------------------| 
|---0---------------0---0---0---0---0---0---1---0---1---1---1---1---1-------------------| 
|---0---0---2---2-------0---------------------------0-----------------------------------| 
|---0-------------------0---------------------------2-------------------2---2---2---2---| 
|---2-------------------2---------------------------3-----------------------------------| 
|---3-------------------3---------------------------------------------------------------| 
       Yes...          Look...                     Possible...                 There... 

|---------------3---------------2-------------------0-----------------------------------| 
|---1---1---3---0---0---3---3---3---3---3---0---0---1---1---1---1---1---0---------------| 
|---------------0---------------2-------------------0-----------------------------------| 
|---------------0---------------0-------------------2-----------------------------------| 
|---------------2-----------------------------------3-----------------------------------| 
|---------------3-----------------------------------------------------------------------| 
               Ask...          Take...             Single... 

|---3-----------------------------------------------------------------------------------| 
|---0---0-------------------------------------------------------------------------------| 
|---0-------2---0-----------------------------------------------------------------------| 
|---0-----------------------------------------------------------------------------------| 
|---2-----------------------------------------------------------------------------------| 
|---3-----------------------------------------------------------------------------------| 
       Kiss... 

Chorus 
|---3---------------------------0---2---3---0---0---0---0-------------------0-----------| 
|---0---3---3---3---3---3---3---1-----------------------0---3---3---3---3---------------| 
|---0---------------------------0-----------------------0-------------------------------| 
|---0---------------------------2-----------------------0-------------------------------| 
|---2---------------------------3-----------------------2-------------------------------| 
|---3---------------------------------------------------3-------------------------------| 
       Sha...                  My...                   Boy... 

|---2---0-----------3---------------------------0---2---3---0---0---0---3---------------| 
|---3-------3---3---0---3---3---3---3---3---3---1-----------------------0---3-----------|| 
|---2---------------0---------------------------0-----------------------0-------0-------| 
|---0---------------0---------------------------2-----------------------0---------------| 
|-------------------2---------------------------3-----------------------2---------------| 
|-------------------3---------------------------------------------------3---------------| 
       Kiss...         Sha...                  Ain't...                Shame... 

|---------------3-----------------------------------------------------------------------| 
|---------------0-----------------------------------------------------------------------| 
|---0---0---2---0----2---0--------------------------------------------------------------| 
|---------------0-----------------------------------------------------------------------| 
|---------------2-----------------------------------------------------------------------| 
|---------------3-----------------------------------------------------------------------| 
               Miss... 

verse 3 
|---3-------------------3--------------------------0------------------------------------| 
|---0---------------0---0----------------------0---1---1---1---1---1----------1---1-----| 
|---0---0---2---2-------0---0---0---0--0---2-------0------------------------------------| 
|---0-------------------0--------------------------2------------------2---2-------------| 
|---2-------------------2--------------------------3------------------------------------| 
|---3-------------------3---------------------------------------------------------------| 
       Now's...        Floating...                Boy... 

|-----------3---------------2-------------------0---------------------------------------| 
|---1---3---0---0---3---3---3---3---3---0---0---1---1---1---1---1---1---0---------------| 
|-----------0---------------2-------------------0---------------------------------------| 
|-----------0---------------0-------------------2---------------------------------------| 
|-----------2-----------------------------------3---------------------------------------| 
|-----------3---------------------------------------------------------------------------| 
           Better...       Say...              Won't... 

|---3-----------------------------------------------------------------------------------| 
|---0---0-------------------------------------------------------------------------------| 
|---0-------2---0-----------------------------------------------------------------------| 
|---0-----------------------------------------------------------------------------------| 
|---2-----------------------------------------------------------------------------------| 
|---3-----------------------------------------------------------------------------------| 
       Kiss... 

Chorus 
|---3---------------------------0---2---3---0---0---0---0-------------------0-----------| 
|---0---3---3---3---3---3---3---1-----------------------0---3---3---3---3---------------| 
|---0---------------------------0-----------------------0-------------------------------| 
|---0---------------------------2-----------------------0-------------------------------| 
|---2---------------------------3-----------------------2-------------------------------| 
|---3---------------------------------------------------3-------------------------------| 
       Sha...                  Don't...                Mood... 

|---2---0-----------3---------------------------0---2---3---0---0---0---3---------------| 
|---3-------3--3----0---3---3---3---3---3---3---1-----------------------0---3-----------| 
|---2---------------0---------------------------0-----------------------0-------0-------| 
|---0---------------0---------------------------2-----------------------0---------------| 
|-------------------2---------------------------3-----------------------2---------------| 
|-------------------3---------------------------------------------------3---------------| 
       Kiss...         Sha...                  Don't...                Hide... 

|---------------3-----------------------------------------------------------------------| 
|---------------0-----------------------------------------------------------------------| 
|---0---0---2---0----2---0--------------------------------------------------------------| 
|---------------0-----------------------------------------------------------------------| 
|---------------2-----------------------------------------------------------------------| 
|---------------3-----------------------------------------------------------------------| 
               Kiss... 

|---3---------------------------0---2---3---0---0---0---0-------------------0-----------| 
|---0---3---3---3---3---3---3---1-----------------------0---3---3---3---3---------------| 
|---0---------------------------0-----------------------0-------------------------------| 
|---0---------------------------2-----------------------0-------------------------------| 
|---2---------------------------3-----------------------2-------------------------------| 
|---3---------------------------------------------------3-------------------------------| 
       Sha...                  Float...                To... 

|---2---0-----------3---------------------------0---2---3---0---0---0---3---------------| 
|---3-------3---3---0---3---3---3---3---3---3---1-----------------------0---3-----------| 
|---2---------------0---------------------------0-----------------------0-------0-------| 
|---0---------------0---------------------------2-----------------------0---------------| 
|-------------------2---------------------------3-----------------------2---------------| 
|-------------------3---------------------------------------------------3---------------| 
       Kiss...         Sha...                  Music...                Music... 

|---------------3-----------------------------------------------------------------------| 
|---------------0-----------------------------------------------------------------------| 
|---0---0---2---0----2---0--------------------------------------------------------------| 
|---------------0-----------------------------------------------------------------------| 
|---------------2-----------------------------------------------------------------------| 
|---------------3-----------------------------------------------------------------------| 
               Kiss... 

Outro 
|---------------3-----------------------------------------------------------------------| 
|---------------0-----------------------------------------------------------------------| 
|---0---0---2---0----2---0--------------------------------------------------------------|x4 
|---------------0-----------------------------------------------------------------------| 
|---------------2-----------------------------------------------------------------------| 
|---------------3-----------------------------------------------------------------------| 
               Kiss... 
	  

Search Paypal
auto scroll beats size up size down change color hide chords drawings
tab show chords e-chords YouTube Clip e-chords hide all tabs e-chords go to top tab