Misc Cartoons

home > Misc Cartoons

The Little Mermaid 3 - Athenas Song Tab

Misc Cartoons

Difficulty: nolevelnolevel

by fernsantana

tuner correct add songbook print version text version save to e-mail
chordsukulelecavacokeyboardtabbassdrumsharmonicsflute Guitar Pro
chords

The Little Mermaid 3 - Athenas Song

  		 


e|-----0-1-0------------------------------0-1-3-0--------| 
B|-1-3--------------------------------1-3---------1------| 
G|-----------0-2------------------------------0----------| 
D|-------------------------------------------------------| 
A|---------3---------------------------------------------| 
E|-------------------------------------------------------| 

e|-----0----------------0---3-1-0------------| 
B|-1-3--------------1-3-----------3-1--------| 
G|-------0-2------------------3-------0------| 
D|-------------------------------------------| 
A|-----3----------------3-------------2------| 
E|-------------------------------------------| 

e|---0--1-3----0-----7--5--0----------0-----0-3-------------0-----0-3---------| 
B|-3-----------------0------------------1-3-------------------1-3-------------| 
G|--------0----------------4------------------0---------------------0---------| 
D|-------------2--------------------------------------------------------------| 
A|--------------------------------------3---------------------3---------------| 
E|----------------------------------------------------------------------------| 

e|-3-1-0--3-3----------| 
B|------------1-1------| 
G|---------------------| 
D|-----2---------------| 
A|--------------3------| 
E|---------------------|  
	  

Search Paypal
auto scroll beats size up size down change color hide chords drawings
tab show chords e-chords YouTube Clip e-chords hide all tabs e-chords go to top tab