Misc Cartoons

home > Misc Cartoons

Steven Universe - I'm Still Here Tab

Misc Cartoons

Difficulty: nolevelnolevel

by tercmoraes

tuner correct add songbook print version text version save to e-mail
chordsukulelecavacokeyboardtabbassdrumsharmonicsflute Guitar Pro
chords

Steven Universe - I'm Still Here

  		
E|--------------------5--------------------------| 
B|--------7--7--5--------------------7-----------| 
G|--6---------------7----------6--------6--------| 
D|--7-----------------------7-----7--------7-----| 
A|--5--------------------------------------------| 
E|-----------------------------------------------| 

E|-----------7--7--------------------------------------------| 
B|-----------7--7--10----------------------------------------| 
G|--------7--7--7------7/10-------10----9-----7-----0--------| 
D|-----8-----------------12-------------------------2--------| 
A|--9--------------------13-------------------------2--------| 
E|-----------------------------------------------------------| 

E|-----0-----------------0-----5------------| 
B|--3-----3-----------3-----3--5------------| 
G|-----------0-----------------6------------| 
D|-----------5-----------------5------------| 
A|-----------6-----------------7------------| 
E|------------------------------------------| 

E|--6-----6----/8-\6-\5--| 
B|--7-----7--------------| 
G|--8-----8--------------| 
D|--8-----8--------------| 
A|-----------------------| 
E|-----------------------| 

E|-----------------------------5--------------------------| 
B|-----7-----7-----7--7--5--------------------7-----5-----| 
G|-----6-----6--------------7-----------6-----------------| 
D|-----7-----7-----------------------7-----7--------------| 
A|-----5-----5--------------------------------------------| 
E|--------------------------------------------------------| 

E|--------10/12/14\10-------------12-10----| 
B|--------------------10-10----10----7-----| 
G|--0--------------------9-----9-----7-----| 
D|--9--------------------11----11----9-----| 
A|--10-------------------------------------| 
E|-----------------------------------------| 

E|--------------------------------0------------------------------------0h5--12-| 
B|-----------3---------6/8--6-----3---------6\5-----2--------------------------| 
G|-----0-----3-----------------0--0-----------------2------------6/7-----------| 
D|--4-----4--3-----------------5--------------------0--------------------------| 
A|-----------1-----------------6--------------------0--------------------------| 
E|--------------------------------------------------2--------------------------| 

E|-----------------------| 
B|-----------------------| 
G|-----------------------| 
D|-----4-----5-----7-----| 
A|-----5-----7-----9-----| 
E|-----2-----4-----5-----| 

E|--2--0--2--0--2--0-----5--| 
B|--3--3--3--3--3--3--3-----| 
G|--4--4--4--4--4--4--------| 
D|--4--4--4--4--4--4--------| 
A|--2--2--2--2--2--2--------| 
E|--------------------------| 

E|--2--0--2--0--2--1--0-----| 
B|--0--0--0--0--0--------3--| 
G|--0--0--0--0--0-----------| 
D|--0--0--0--0--0-----------| 
A|--2--2--2--2--2-----------| 
E|--3--3--3--3--3-----------| 

E|--------------0--------------------------------| 
B|--2--2-----2--2-----3--2--0--------------------| 
G|--2--2-----2--2---------------------------6/7--| 
D|--2--2-----2--2-----------------------4--------| 
A|--4--4-----4--0------------------4/5-----------| 
E|--2--2-----2--2--------------------------------| 

E|-----------------5--3--2--0--| 
B|---5h7--5--3-----3--------0--| 
G|-----------------4--------0--| 
D|-----------------5--------5--| 
A|-----------------------------| 
E|-----------------------------| 

E|--3--2--0--------------------| 
B|--3-----------3-----2-----5--| 
G|--3-----------3-----------4--| 
D|--0-----------0--------------| 
A|--------------------------2--| 
E|--------------------------2--| 

E|-----------12-| 
B|--------14----| 
G|--------------| 
D|--11/12-------| 

TABS BY HAROLD HIEU NGUYEN 



************************************ 

| /  Slide up 
| \  Slide down 
| h  Hammer-on 

************************************ 
	  

Search Paypal
auto scroll beats size up size down change color hide chords drawings
tab show chords e-chords YouTube Clip e-chords hide all tabs e-chords go to top tab