Misc Cartoons

home > Misc Cartoons

Snufkins Song - Dancing Melody Tab

Misc Cartoons

Difficulty: nolevelnolevel

by VsWorld

tuner correct add songbook print version text version save to e-mail
chordsukulelecavacokeyboardtabbassdrumsharmonicsflute Guitar Pro
chords

Snufkins Song - Dancing Melody

  		
Intro. 

E|--12--11--12--12--11--12--12--8-----12--10---------13--12--13--13--12--13--15--13--10--11--12-- 
B|---------------------------------8-------------10---------------------------------------------- 
G|----------------------------------------------------------------------------------------------- 
D|----------------------------------------------------------------------------------------------- 
A|----------------------------------------------------------------------------------------------- 
E|----------------------------------------------------------------------------------------------- 

- 

E|-----12--11--12--12--11--12--13------------------------------------------12p13--12------------------- 
B|--8------------------------------15--12--15--13v-------------12--13--15-------------12--15--15--13v-- 
G|-----------------------------------------------------12--14------------------------------------------ 
D|----------------------------------------------------------------------------------------------------- 
A|----------------------------------------------------------------------------------------------------- 
E|----------------------------------------------------------------------------------------------------- 

- 

E|--17--16--17--17--16--17--17--13------17--15v-------------------------12p13--12------------------- 
B|----------------------------------13----------------------12--13--15-------------12--15--15--13v-- 
G|--------------------------------------------------12--14------------------------------------------ 
D|-------------------------------------------------------------------------------------------------- 
A|-------------------------------------------------------------------------------------------------- 
E|-------------------------------------------------------------------------------------------------- 

(p) Pull Off 

Enjoy! 
	  

Search Paypal
auto scroll beats size up size down change color hide chords drawings
tab show chords e-chords YouTube Clip e-chords hide all tabs e-chords go to top tab