Misc Cartoons

Sleeping Beauty - Once Upon A Dream Tab

Misc Cartoons

Difficulty: nolevelnolevel

by gustsilva

tuner correct add songbook print version text version save to e-mail
chordsukuleleukulelecavacokeyboardtabbassdrumsharmonicsflute Guitar Pro
close

there isn't a video lesson for this song

chords

Sleeping Beauty - Once Upon A Dream

  		

I've always looked for a tab for this song but there was never one on here, just chords, so now 
that I've got the tab I thought I'd share! 

Tuning: Standard 

e|3-----------|2-----------|3-------0---|2---3---0---|--------5---| 
B|----0---0---|----0---0---|----0-------|0-----------|7-----------| 
G|----0---0---|----0---0---|----0---0---|0-----------|----5---5---| 
D|------------|0-----------|------------|0-----------|----7-------| 
A|------------|------------|------------|------------|5-----------| 
E|3-----------|------------|3-----------|--------3---|------------| 

e|7-------4---|5-----------|------------|10-----------|9-----------| 
B|----6-------|----5---5---|----7---7---|-----8---8---|----8---8---| 
G|----7---4---|----5---5---|----5---5---|-----7---7---|----9---9---| 
D|6-----------|------------|0-----------|-9-----------|8-----------| 
A|------------|0-----------|------------|-------------|------------| 
E|------------|------------|------------|-------------|------------| 
| 
e|8-------5---|8---7---5---|12-------10---|8-------7---|7---5-------| 
B|----5-------|------------|-----0--------|----9-------|5-------9---| 
G|----5-------|----5-------|-----0--------|----7-------|0-----------| 
D|7-----------|0-----------|-0------------|------------|------------| 
A|------------|------------|--------------|7-----------|0-----------| 
E|------------|------------|--------------|------------|------------| 

e|5---0---2---|3-------7/2---|2-------7/3---|3-------0---|2---3---4---| 
B|------------|----0---------|----0---------|----0-------|0-----------| 
G|5---0---2---|----0---------|----0---------|----0---0---|0---4---5---| 
D|0-------0---|--------------|0-------------|------------|0-----------| 
A|------------|--------------|--------------|------------|------------| 
E|------------|3-------------|--------------|3-----------|------------| 

e|5-----------|7-----------|8-----------|----9---12---|10-----------| 
B|--------5---|--------5---|----5---5---|----8--------|---------8---| 
G|----5-------|----7-------|----5---5---|----9--------|-----7---0---| 
D|----7-------|----6-------|------------|----8---11---|-9-----------| 
A|0-----------|------------|0-----------|0------------|-------------| 
E|------------|0-----------|------------|-------------|-------------| 

e|12--------10---|12---8---5---|14--------12---|15---14---12---|10--------10---| 
B|-----11----0---|13-----------|-----13--------|-0-------------|------9--------| 
G|-----12--------|12---9---5---|-----11--------|-0-------------|-----10--------| 
D|11-------------|-------------|-0-------------|-0-------------|-9-------------| 
A|---------------|-0-----------|---------------|---------------|---------------| 
E|---------------|-------------|---------------|---------------|---------------| 
                        harmonics 
e|13---12---10---|8-------<12>---|3-----------|2-----------|3------------|3----| 
B|12---------9---|----8----------|----1---1---|----1---1---|--------0----|0----| 
G|13-------------|----9---<12>---|----2---2---|----2---2---|------0---0--|0----| 
D|-----------9---|7--------------|0-----------|0-----------|----0--------|-----| 
A|---------------|---------------|------------|--------0---|--2----------|-----| 
E|-0-------------|---------------|------------|------------|3------------|3----| 
	  

Search Paypal
auto scroll beats size up size down change color hide chords drawings
tab show chords e-chords YouTube Clip e-chords hide all tabs e-chords go to top tab

share with facebook