Misc Cartoons

home > Misc Cartoons

Rebecca Sugar - Steven Universe Theme Tab

Misc Cartoons

Difficulty: nolevelnolevel

by carlluz

tuner correct add songbook print version text version save to e-mail
chordsukulelecavacokeyboardtabbassdrumsharmonicsflute Guitar Pro
chords

Rebecca Sugar - Steven Universe Theme

  		
   "We are the crystal gems, we'll always save the day, and if you think we can't" 
e|--------------------------------------------------------------------------------| 
B|-----0--------------------------------------------------------------------------| 
G|---------2--0--2-----------------4---2---0----2---0-------4---2---0----2--0-----| 
D|--0------------------4----1---------------------------0-------------------------| 
A|--------------------------------------------------------------------------------| 
E|--------------------------------------------------------------------------------| 

   "We'll always find a way, that's why the people of this world, believe in;" 
e|-----------------------------------------------------------------------------| 
B|-----------------------------------------------------------------------------| 
G|--------4----2--0----2--0-----------4---2--0--2---4--2-----------------------| 
D|---1--------------------------0----------------------------4-----------------| 
A|-----------------------------------------------------------------2--0--------| 
E|------------------------------------------------------------------------3----| 

  "Garnet, Amethyst, and Pearl... and Steven!" 
e|---------------------------------------------------------------------------| 
B|-------------------------0-------------------------------------------------| 
G|--4--2---0--2--0----------------2----7---4---------------------------------| 
D|---------------------0-----------------------------------------------------| 
A|---------------------------------------------------------------------------| 
E|---------------------------------------------------------------------------| 
	  

Search Paypal
auto scroll beats size up size down change color hide chords drawings
tab show chords e-chords YouTube Clip e-chords hide all tabs e-chords go to top tab