Misc Cartoons

home > Misc Cartoons

Pokemon Mystery Dungeon - Dont Ever Forget Tab

Misc Cartoons

Difficulty: nolevelnolevel

by hebealmeida

tuner correct add songbook print version text version save to e-mail
chordsukulelecavacokeyboardtabbassdrumsharmonicsflute Guitar Pro
chords

Pokemon Mystery Dungeon - Dont Ever Forget

  		

C#|------------------------------------------------------| 
G#|-----2--5\7--10/9--7--5--7/2--------------------------| 
E |------------------------------------------------------| 
B |------------------------------------------------------| 
F#|------------------------------------------------------| 
B |------------------------------------------------------| 

C#|----------------------------------------------------| 
G#|----------------------------------------------------| 
E |------2h4--2--4---2--4\9/6--------------------------| 
B |---4------------------------------------------------| 
F#|----------------------------------------------------| 
B |----------------------------------------------------| 


C#|------------------------------------------------------| 
G#|---2--5\7--10/9--7--5--7/2----------------------------| 
E |------------------------------------------------------| 
B |------------------------------------------------------| 
F#|------------------------------------------------------| 
B |------------------------------------------------------| 

C#|------------------------------------------------------| 
G#|------------------------------------------------------| 
E |------2h4--4--4---2--4\6/2----------------------------| 
B |---4--------------------------------------------------| 
F#|------------------------------------------------------| 
B |------------------------------------------------------| 


C#|------------------------------------------------------| 
G#|--9--7\2----9--7\--------5--7--14--14--12--10--17--14-| 
E |--------------------4---------------------------------| 
B |------------------------------------------------------| 
F#|------------------------------------------------------| 
B |------------------------------------------------------| 


C#|------------------------------------------------------| 
G#|--9--7\2----9--7\--------5--7--14--14--12--10--12--10-| 
E |--------------------4---------------------------------| 
B |------------------------------------------------------| 
F#|------------------------------------------------------| 
B |------------------------------------------------------| 
	  

Search Paypal
auto scroll beats size up size down change color hide chords drawings
tab show chords e-chords YouTube Clip e-chords hide all tabs e-chords go to top tab