Misc Cartoons

home > Misc Cartoons

Over The Garden Wall - The Fight Is Over Tab

Misc Cartoons

Difficulty: nolevelnolevel

by tarikike

tuner correct add songbook print version text version save to e-mail
chordsukulelecavacokeyboardtabbassdrumsharmonicsflute Guitar Pro
chords

Over The Garden Wall - The Fight Is Over

  		Verse 

Strum root note to the rhythm  

  C           Em         F                      C        Am     F 
e|---------------------------1--x-1-1-1-1-1-1-------------------1-1-1-1-1-1-----------------| 
B|----5--x-x------0--x-x-----1--x-1-1-1-1-1-1------5-x-----1-x--1-1-1-1-1-1-----------------| 
G|----5--x-x------0--x-x-----2--x-2-2-2-2-2-2------5-x-----2-x--2-2-2-2-2-2-----------------| 
D|----5--x-x------2--x-x-----3--x-3-3-3-3-3-3------5-x---2-2-x--3-3-3-3-3-3-----------------| 
A|-3--3--x-x---2--2--x-x--3--3--x-3-3-3-3-3-3---3--3-x---0-0-x--3-3-3-3-3-3-----------------| 
E|------------------------1--1--x-1-1-1-1-1-1-------------------1-1-1-1-1-1-----------------| 
   The angels have gone... songs gone silent    You're sinking like a stone... before the tide 

    C         Em           F                    Am         G           C 
e|-------------------------1--x-1-1-1-1-1------------------3--3--3--3--------------------| 
B|----5--x-x----0--x-x-----1--x-1-1-1-1-1-------(1)---1-1--3--3--3--3---1~---------------| 
G|----5--x-x----0--x-x-----2--x-2-2-2-2-2-------(2)---2-2--0--0--0--0---0~---------------| 
D|----5--x-x----2--x-x-----3--x-3-3-3-3-3-------(2)---2-2--0--0--0--0---2~---------------| 
A|-3--3--x-x--2-2--x-x--3--3--x-3-3-3-3-3-------(0)---0-0--2--2--2--2---3~---------------| 
E|----------------------1--1--x-1-1-1-1-1------------------3--3--3--3--------------------| 
   The river runs cold.... the fight is over  Still the haunted ruins of night call your name 


                                                               Full version of the song ? 

Solo  

Not complete >~< anyone who reads this please contribute! https://www.youtube.com/watch?v=A5nwqrtRwqA 

e|---------------------------------------------------------------------------| 
B|---------------------8----8------------------------------------------------| 
G|--------5--7/9-7/9-9---9----9-7/9r7h5-7b--7/9r7h5-7b-7/9r7h5-7b-7/9r7h5-7b-| 
D|---5--7--------------------------------------------------------------------| 
A|---------------------------------------------------------------------------| 
E|---------------------------------------------------------------------------| 

e|-----------------------3/5---3/5--3/5---3/5------5--3--5--3----------------| 
B|-------------5------------5~----5~---5~----5~-3/5--5--5--5-----------------| 
G|-------5~-5/7---7-5--------------------------------------------------------| 
D|---5/7-------------7-------------------------------------------------------| 
A|---------------------------------------------------------------------------| 
E|---------------------------------------------------------------------------|  
	  

Full key step upFull key step up
Half key step upHalf key step up
Half key step downHalf key step down
Full key step downFull key step down
Search Paypal
auto scroll beats size up size down change color hide chords drawings
tab show chords e-chords YouTube Clip e-chords hide all tabs e-chords go to top tab