Misc Cartoons

home > Misc Cartoons

Mulan - Ill Make A Man Out Of You Tab

Misc Cartoons

Difficulty: nolevelnolevel

by IronPower4Ever

tuner correct add songbook print version text version save to e-mail
chordsukulelecavacokeyboardtabbassdrumsharmonicsflute Guitar Pro
chords

Mulan - Ill Make A Man Out Of You

  		verse 1 
e|---0---0-------2-------3---------------0-------2----------------------------------------| 
A|---0-------0---3-------0---3-----------1---3---3----------------------------------------| 
D|---0-----------2---2---0-------0---2---2-------2----------------------------------------| 
G|---2-----------0-------0---------------2-------0----------------------------------------| 
B|---2-------------------2---------------0------------------------------------------------| 
E|---0-------------------3---------------0------------------------------------------------| 
         Let's...        Business...             Huns... 

e|---0---0-------2-------3---------------0-------2----------------------------------------| 
A|---0-------0---3-------0---3-----------1---3---3----------------------------------------| 
D|---0-----------2---2---0-------0---2---2-------2----------------------------------------| 
G|---2-----------0-------0---------------2-------0----------------------------------------| 
B|---2-------------------2---------------0------------------------------------------------| 
E|---0-------------------3---------------0------------------------------------------------| 
         Did...          Daughters...            Sons... 

Chorus 
e|-----------0---------------2-----------------------3---------------0--------------------| 
A|-----------1-----------0---3-----------------------0---0---0-------1--------------------| 
D|-----------0-------0-------2---0-------------------0---------------0--------------------| 
G|---0---0---2---2-----------0-------4---0---0---0---0-----------0---2--------------------| 
B|-----------3---------------------------------------2---------------3--------------------| 
E|---------------------------------------------------3------------------------------------| 
             Saddest...              Met...          Bet...          Through... 

e|-----------0-----------2---------------0------------------------------------------------| 
A|---1---0---1-------0---3---------------0------------------------------------------------| 
D|-----------0---0-------2---0-------0---0------------------------------------------------| 
G|-----------2-----------0-------4-------2------------------------------------------------| 
B|-----------3---------------------------2------------------------------------------------| 
E|---------------------------------------0------------------------------------------------| 
     Mister...           Man...          You... 

verse 2 
e|---0---0-------2-------3---------------0-------2----------------------------------------| 
A|---0-------0---3-------0---3-----------1---3---3----------------------------------------| 
D|---0-----------2---2---0-------0---2---2-------2----------------------------------------| 
G|---2-----------0-------0---------------2-------0----------------------------------------| 
B|---2-------------------2---------------0------------------------------------------------| 
E|---0-------------------3---------------0------------------------------------------------| 
         Tranquil...     Forest...              -in... 

e|---0---0-------2-------3---------------0-------2----------------------------------------| 
A|---0-------0---3-------0---3-----------1---3---3----------------------------------------| 
D|---0-----------2---2---0-------0---2---2-------2----------------------------------------| 
G|---2-----------0-------0---------------2-------0----------------------------------------| 
B|---2-------------------2---------------0------------------------------------------------| 
E|---0-------------------3---------------0------------------------------------------------| 
         Once...         Center...               Win... 

Chorus 
e|-----------0---------------2-------------------3---------------0--------------------| 
A|-----------1-----------0---3-------------------0---0---0-------1--------------------| 
D|-----------0-------0-------2---0---------------0---------------0--------------------| 
G|---0---0---2---2-----------0-------4---0---0---0-----------0---2--------------------| 
B|-----------3-----------------------------------2---------------3--------------------| 
E|-----------------------------------------------3------------------------------------| 
             Spineless...            Lot...      Haven't...      Clue... 

e|-----------0-----------2-----------0------------------------------------------------| 
A|---1---0---1-------0---3---0---3---0------------------------------------------------| 
D|-----------0---0-------2-----------0------------------------------------------------| 
G|-----------2-----------0-----------2------------------------------------------------| 
B|-----------3-----------------------2------------------------------------------------| 
E|-----------------------------------0------------------------------------------------| 
     Somehow...          Man...      You...   

Bridge   
e|---0-----------------------2-----------2---------------------------0----------------| 
A|---1-----------------------3-----------4---------------------------0----------------| 
D|---0---0---0---0---0---0---2---2---2---4---4---4---4---4-------2---0----------------| 
G|---2-----------------------0-----------4-------------------4-------2----------------| 
B|---3-----------------------------------2---------------------------2----------------| 
E|---------------------------------------2---------------------------0----------------| 
         I'm...              Catch...    Say...                      Me... 

e|---2---------------3---------------0------------------------------------------------| 
A|---3---------------0---0-----------1------------------------------------------------| 
D|---2---2---2---2---0-------2---0---0------------------------------------------------| 
G|---0---------------0---------------2------------------------------------------------| 
B|-------------------2---------------3------------------------------------------------| 
E|-------------------3----------------------------------------------------------------| 
     Boy...          Fool...         Gym... 

e|---0-----------------------2-----------2---------------------------0----------------| 
A|---1-----------------------3-----------4---------------------------0----------------| 
D|---0---0---0---0---0---0---2---2---2---4---4---4---4---4-------2---0----------------| 
G|---2-----------------------0-----------4-------------------4-------2----------------| 
B|---3-----------------------------------2---------------------------2----------------| 
E|---------------------------------------2---------------------------0----------------| 
         This...             Scared...   Hope...                     Me... 

e|---2---------------3------------------------0---------------------------------------| 
A|---3---------------0---0---0---0------------1---------------------------------------| 
D|---2---2---2---2---0----------------2---0---0---------------------------------------| 
G|---0---------------0------------------------2---------------------------------------| 
B|-------------------2------------------------3---------------------------------------| 
E|-------------------3----------------------------------------------------------------| 
     Now...          Wish...                  Swim... 

Chorus 
e|-----------0 --------------2-----------2-----------0--------------------------------| 
A|-----------1---------------3-----------4-----------0--------------------------------| 
D|-----------0---0---0---0---2---0---0---4---2---2---0--------------------------------| 
G|---2---4---2---------------0-----------4-----------2--------------------------------| 
B|-----------3---------------------------2-----------2--------------------------------| 
E|---------------------------------------2-----------0--------------------------------| 
     Be...   Man...          Swift...                River... 

e|-----------0 --------------2-----------2-------0------------------------------------| 
A|-----------1---------------3-----------4-------0------------------------------------| 
D|-----------0---0---0---0---2---0---0---4---2---0------------------------------------| 
G|---2---4---2---------------0-----------4-------2------------------------------------| 
B|-----------3---------------------------2-------2------------------------------------| 
E|---------------------------------------2-------0------------------------------------| 
     Be...   Man...          Force...            Typhoon... 
     
e|-----------0 --------------2-----------2-----------0--------------------------------| 
A|-----------1---------------3-----------4-----------0--------------------------------| 
D|-----------0---0---0---0---2---0---0---4---2---2---0--------------------------------| 
G|---2---4---2---------------0-----------4-----------2--------------------------------| 
B|-----------3---------------------------2-----------2--------------------------------| 
E|---------------------------------------2-----------0--------------------------------| 
     Be...   Man...          Strength...             Fire... 

e|-------0-------------------2---------------0----------------------------------------| 
A|-------1---------------0---3-----------3---0----------------------------------------| 
D|-------0---0---0---0-------2---0-----------0----------------------------------------| 
G|---2---2-------------------0-------4-------2----------------------------------------| 
B|-------3-----------------------------------2----------------------------------------| 
E|-------------------------------------------0----------------------------------------| 
     Mysterious...           Dark...         Moon... 

Move Capo +1 

verse 3 
e|---0---0-------2-------3---------------0-------2----------------------------------------| 
A|---0-------0---3-------0---3-----------1---3---3----------------------------------------| 
D|---0-----------2---2---0-------0---2---2-------2----------------------------------------| 
G|---2-----------0-------0---------------2-------0----------------------------------------| 
B|---2-------------------2---------------0------------------------------------------------| 
E|---0-------------------3---------------0------------------------------------------------| 
         Time...         Us...                  -rive... 

e|---0---0-------2-------3---------------0-------2----------------------------------------| 
A|---0-------0---3-------0---3-----------1---3---3----------------------------------------| 
D|---0-----------2---2---0-------0---2---2-------2----------------------------------------| 
G|---2-----------0-------0---------------2-------0----------------------------------------| 
B|---2-------------------2---------------0------------------------------------------------| 
E|---0-------------------3---------------0------------------------------------------------| 
         Heed...         Order...               -vive... 

Chorus 
e|-------0-------------------2------------------3---------------0--------------------| 
A|-------1---------------0---3------------------0---0---0-------1--------------------| 
D|-------0-----------0-------2---0--------------0---------------0--------------------| 
G|---0---2---2---2-----------0-------4---0--0---0-----------0---2--------------------| 
B|-------3--------------------------------------2---------------3--------------------| 
E|----------------------------------------------3------------------------------------| 
         Unsuited...         Rage...            Up...           Through... 

e|-----------0-----------2-----------0------------------------------------------------| 
A|---1---0---1-------0---3---0---3---0------------------------------------------------| 
D|-----------0---0-------2-----------0------------------------------------------------| 
G|-----------2-----------0-----------2------------------------------------------------| 
B|-----------3-----------------------2------------------------------------------------| 
E|-----------------------------------0------------------------------------------------| 
     How...              Man...      You...   

Chorus 
e|-----------0 --------------2-----------2-----------0--------------------------------| 
A|-----------1---------------3-----------4-----------0--------------------------------| 
D|-----------0---0---0---0---2---0---0---4---2---2---0--------------------------------| 
G|---2---4---2---------------0-----------4-----------2--------------------------------| 
B|-----------3---------------------------2-----------2--------------------------------| 
E|---------------------------------------2-----------0--------------------------------| 
     Be...   Man...          Swift...                River... 

e|-----------0 --------------2-----------2-------0------------------------------------| 
A|-----------1---------------3-----------4-------0------------------------------------| 
D|-----------0---0---0---0---2---0---0---4---2---0------------------------------------| 
G|---2---4---2---------------0-----------4-------2------------------------------------| 
B|-----------3---------------------------2-------2------------------------------------| 
E|---------------------------------------2-------0------------------------------------| 
     Be...   Man...          Force...            Typhoon... 
     
e|-----------0 --------------2-----------2-----------0--------------------------------| 
A|-----------1---------------3-----------4-----------0--------------------------------| 
D|-----------0---0---0---0---2---0---0---4---2---2---0--------------------------------| 
G|---2---4---2---------------0-----------4-----------2--------------------------------| 
B|-----------3---------------------------2-----------2--------------------------------| 
E|---------------------------------------2-----------0--------------------------------| 
     Be...   Man...          Strength...             Fire... 

e|-------0-------------------2---------------0----------------------------------------| 
A|-------1---------------0---3-----------3---0----------------------------------------| 
D|-------0---0---0---0-------2---0-----------0----------------------------------------| 
G|---2---2-------------------0-------4-------2----------------------------------------| 
B|-------3-----------------------------------2----------------------------------------| 
E|-------------------------------------------0----------------------------------------| 
     Mysterious...           Dark...         Moon... 

e|-----------0 --------------2-----------2-----------0--------------------------------| 
A|-----------1---------------3-----------4-----------0--------------------------------| 
D|-----------0---0---0---0---2---0---0---4---2---2---0--------------------------------| 
G|---2---4---2---------------0-----------4-----------2--------------------------------| 
B|-----------3---------------------------2-----------2--------------------------------| 
E|---------------------------------------2-----------0--------------------------------| 
     Be...   Man...          Swift...                River... 

e|-----------0 --------------2-----------2-------0------------------------------------| 
A|-----------1---------------3-----------4-------0------------------------------------| 
D|-----------0---0---0---0---2---0---0---4---2---0------------------------------------| 
G|---2---4---2---------------0-----------4-------2------------------------------------| 
B|-----------3---------------------------2-------2------------------------------------| 
E|---------------------------------------2-------0------------------------------------| 
     Be...   Man...          Force...            Typhoon... 
     
e|-----------0 --------------2-----------2-----------0--------------------------------| 
A|-----------1---------------3-----------4-----------0--------------------------------| 
D|-----------0---0---0---0---2---0---0---4---2---2---0--------------------------------| 
G|---2---4---2---------------0-----------4-----------2--------------------------------| 
B|-----------3---------------------------2-----------2--------------------------------| 
E|---------------------------------------2-----------0--------------------------------| 
     Be...   Man...          Strength...             Fire... 

e|-------0-------------------2-----------2---0----------------------------------------| 
A|-------1---------------0---3---3---3-------0----------------------------------------| 
D|-------0---0---0---0-------2---------------0----------------------------------------| 
G|---2---2-------------------0---------------2----------------------------------------| 
B|-------3-----------------------------------2----------------------------------------| 
E|-------------------------------------------0----------------------------------------| 
     Mysterious...           Dark...         Moon... 
	  

Full key step upFull key step up
Half key step upHalf key step up
Half key step downHalf key step down
Full key step downFull key step down
Search Paypal
auto scroll beats size up size down change color hide chords drawings
tab show chords e-chords YouTube Clip e-chords hide all tabs e-chords go to top tab