Misc Cartoons

home > Misc Cartoons

Mlp Fim - Hush Now Quiet Now Tab

Misc Cartoons

Difficulty: ExpertExpert

by aman%5Fclaudino

tuner correct add songbook print version text version save to e-mail
chordsukulelecavacokeyboardtabbassdrumsharmonicsflute Guitar Pro
chords

Mlp Fim - Hush Now Quiet Now

  		

e|-------------------------------------| 
B|---9-9-11-9---------9----------------| 
G|-8----------8-10-10---10-8-----------| 
D|----------------------------11-10----| 
A|-------------------------------------| 
E|-------------------------------------| 

e|-------------------------------------| 
B|---9-9-11-9---------11-9-8-----------| 
G|-8----------8-10-10------------------| 
D|-------------------------------------| 
A|-------------------------------------| 
E|-------------------------------------| 

e|-------------------------------------| 
B|----9-9-11-9---------9---------------| 
G|-10----------8-10-10---10-8----------| 
D|-----------------------------11-10---| 
A|-------------------------------------| 
E|-------------------------------------| 

e|--------------------------------------| 
B|----9-9-11-9-----------11-9-8---6-8-9-| 
G|-10-----------8-10-10---------8-------| 
D|--------------------------------------| 
A|--------------------------------------| 
E|--------------------------------------| 

 
	  

Search Paypal
auto scroll beats size up size down change color hide chords drawings
tab show chords e-chords YouTube Clip e-chords hide all tabs e-chords go to top tab