Misc Cartoons

home > Misc Cartoons

Mishovy Šílenosti - Pokemon Go Song Tab

Misc Cartoons

Difficulty: nolevelnolevel

by gustsilva

tuner correct add songbook print version text version save to e-mail
chordsukulelecavacokeyboardtabbassdrumsharmonicsflute Guitar Pro
chords

Mishovy Šílenosti - Pokemon Go Song

  		
After Verses 

e|-------14-14-14-14-15-14-14------------------------------------| 
B|---------------------------------------------------------------| 
G|---------------------------------------------------------------| 
D|---------------------------------------------------------------| 
A|---------------------------------------------------------------| 
E|---------------------------------------------------------------| 

e|-------14-14-14-14-14h15---14----------------------------------| 
B|------------------------15-------------------------------------| 
G|---------------------------------------------------------------| 
D|---------------------------------------------------------------| 
A|---------------------------------------------------------------| 
E|---------------------------------------------------------------| 

e|---------13h15p13----------------------------------------------| 
B|---------------------------------------------------------------| 
G|---------------------------------------------------------------| 
D|---------------------------------------------------------------| 
A|---------------------------------------------------------------| 
E|---------------------------------------------------------------| 

e|---------------------------------------------------------------| 
B|---------------------------------------------------------------| 
G|------10-------10---------10~----------------------------------| 
D|---------------------------------------------------------------| 
A|---------------------------------------------------------------| 
E|---------------------------------------------------------------| 

e|---------19p17-----17------------------------------------------| 
B|-----------------------20----18--------------------------------| 
G|---------------------------------------------------------------| 
D|---------------------------------------------------------------| 
A|---------------------------------------------------------------| 
E|---------------------------------------------------------------| 


Solo 

e|-------------------------------------------------------------------| 
B|13-13-11-10--------------------------------------------------------| 
G|------------12^--10h12p10-----------10----10-12-12^-10-12-12^-12-10| 
D|---------------------------12-10-12----12^-------------------------| 
A|-------------------------------------------------------------------| 
E|-------------------------------------------------------------------| 



************************************ 

| h  Hammer-on 
| p  Pull-off 
| ~  Vibrato 
| ^  bend 

************************************ 
	  

Search Paypal
auto scroll beats size up size down change color hide chords drawings
tab show chords e-chords YouTube Clip e-chords hide all tabs e-chords go to top tab