Misc Cartoons

home > Misc Cartoons

Kono Subarashii Sekai Ni Shikufuku Wo - Chiisana Boukensha Tab

Misc Cartoons

Difficulty: nolevelnolevel

by terr%5Fschmitz

tuner correct add songbook print version text version save to e-mail
chordsukulelecavacokeyboardtabbassdrumsharmonicsflute Guitar Pro
chords

Kono Subarashii Sekai Ni Shikufuku Wo - Chiisana Boukensha

  		
Intro 
  C            Em                      C           F          G           C 
e|-------------0-----0--3--5--8--5-----0-----0-----------3/5--3--0--------------------------------| 
B|1-----1--3---0-----------6--------8--1--------3--1----------0-----3-----1-----1--3--1-----------| 
G|0--0---------0--0--------5-----------0--0--------2--2-------0--------0--0--0--------------------| 
D|-------------------------------------------------3----------------------------------------------| 
A|3------------------------0-----------3----------------------------------3-----------------------| 
E|-------------0----------------------------------------------3-----------------------------------| 

Verse 
  C            Em                      C           Am          Em                      G 
e|-------------0-----0--3--5--8--5-----0-----0-----------------0-----0--3--5----------------------| 
B|1-----1--3---0-----------6--------8--1--------3--1-----1--3--0-----------6-----8--5--3-----3----| 
G|0--0---------0---0-------5-----------0--0--------2--2--------0--0--------5--5--------0--0-----0-| 
D|------------------------------------------------------------------------------------------------| 
A|3------------------------0-----------3-----------0-----------------------0----------------------| 
E|-------------0-----------------------------------------------0-----------------------3----------| 

  C            Em                      C           F          G           C 
e|-------------0-----0--3--5--8--5-----0-----0-----------3/5--3--0--------------------------------| 
B|1-----1--3---0-----------6--------8--1--------3--1----------0-----3-----1-----1--3--1-----------| 
G|0--0---------0--0--------5-----------0--0--------2--2-------0--------0--0--0--------------------| 
D|-------------------------------------------------3----------------------------------------------| 
A|3------------------------0-----------3----------------------------------3-----------------------| 
E|-------------0----------------------------------------------3-----------------------------------| 

Chorus 
        Em          F           G           C           Em          F           G           C 
e|0--1--3--------5--3--------5--3--0--------0-----0--1--3--------5--3--------5--3--0-----3--0-----| 
B|------0-----0-----1-----1-----0-----3--1--1-----------0-----0-----1-----1-----0-----3-----1-----| 
G|------0--0--------2--2--------0-----------0--0--------0--0--------2--2--------0-----------0-----| 
D|------------------3-----------------------------------------------3-----------------------------| 
A|------------------------------------------3-----------------------------------------------3-----| 
E|------0-----------------------3-----------------------0-----------------------3-----------------| 

        Em          F           G                      Em          F           G           C 
e|0--1--3--------5--3--------5--3--5--8--7--7/8--0--1--3-----0-----------------0------------------| 
B|------0-----0-----1-----1-----0----------------------0--------1--1-----1--3--0--3--1--3--1------| 
G|------0--0--------2--2--------0----------------------0--0--------2--2--------0-----------0------| 
D|------------------3----------------------------------------------3------------------------------| 
A|-----------------------------------------------------------------------------------------3------| 
E|------0-----------------------3----------------------0-----------------------3------------------| 

Outro 
        Em          F           G           C 
e|0--1--3-----0-----------------0-----------0-----------------------------------------------------| 
B|------0--------1--1-----1--3--0--3--1--3--1-----------------------------------------------------| 
G|------0--0--------2--2--------0-----------0-----------------------------------------------------| 
D|------------------3-----------------------2-----------------------------------------------------| 
A|------------------------------------------3-----------------------------------------------------| 
E|------0-----------------------3-----------0-----------------------------------------------------| 


************************************ 

| /   Slide up 

************************************ 
	  

Full key step upFull key step up
Half key step upHalf key step up
Half key step downHalf key step down
Full key step downFull key step down
Search Paypal
auto scroll beats size up size down change color hide chords drawings
tab show chords e-chords YouTube Clip e-chords hide all tabs e-chords go to top tab