Misc Cartoons

home > Misc Cartoons

Kiseijuu Parasyte - Migi Theme Tab

Misc Cartoons

Difficulty: nolevelnolevel

by tamamoreira

tuner correct add songbook print version text version save to e-mail
chordsukulelecavacokeyboardtabbassdrumsharmonicsflute Guitar Pro
chords

Kiseijuu Parasyte - Migi Theme

  		e|---------------------------------------------------------------------------| 
B|---------------17----------------------------------------------------------| 
G|------16----16----16----16-----------------------------17------------------| 
D|---14----17----------17-----------------------17-14-17----17-14-17---------| 
A|-------------------------------------------15------------------------------| 
E|---------------------------------------------------------------------------| 

e|---------------------------------------------------------------------------| 
B|---------------15----------------------------------------------------------| 
G|------14----14----14----14-----------------------------16------------------| 
D|---------16----------16-----------------------16----16----16----16---------| 
A|---17--------------------------------------14----17----------17------------| 
E|---------------------------------------------------------------------------|  
	  

Search Paypal
auto scroll beats size up size down change color hide chords drawings
tab show chords e-chords YouTube Clip e-chords hide all tabs e-chords go to top tab