Misc Cartoons

home > Misc Cartoons

Gintama - Women Who Ask Whats More Important Work Or Me Deserve A German Suplex Tab

Misc Cartoons

Difficulty: nolevelnolevel

by carlluz

tuner correct add songbook print version text version save to e-mail
chordsukulelecavacokeyboardtabbassdrumsharmonicsflute Guitar Pro
chords

Gintama - Women Who Ask Whats More Important Work Or Me Deserve A German Suplex

  		 
 

1st guitar's tab. 

e|----------------------------10-9-------------------------------| 
B|-7---10--------------------------10-----7-7--------------------| 
G|---9--------6-7-9---------------------------7-9----------------| 
D|------------------7--------------------------------------------| 
A|---------------------------------------------------------------| 
E|---------------------------------------------------------------| 

e|----------------------------10-9--------10-10-9-9/12-----------| 
B|-7---10--------------------------10----------------------------| 
G|---9--------6-7-9----------------------------------------------| 
D|------------------7--------------------------------------------| 
A|---------------------------------------------------------------| 
E|---------------------------------------------------------------| 

e|---------------------------------------------------------------| 
B|-5/7-----10-10-10-------7-7-7-------9-9-9-----10---------------| 
G|------------------9-----------7-----------7--------------------| 
D|---------------------------------------------------------------| 
A|---------------------------------------------------------------| 
E|---------------------------------------------------------------| 

e|---------------------------------------------10-10-10-9--------| 
B|---------------------7---------10-10-10-----------------10-10--| 
G|-6-6-6-6/7-----9-9-9-----7-7------------9----------------------| 
D|---------------------------------------------------------------| 
A|---------------------------------------------------------------| 
E|---------------------------------------------------------------| 

e|---------------------------------------------------------------| 
B|-6/7-----10-10-10-------7-7-7-------9-9-9-----10---------------| 
G|------------------9-----------7-----------7--------------------| 
D|---------------------------------------------------------------| 
A|---------------------------------------------------------------| 
E|---------------------------------------------------------------| 

e|---------------------------------------------10-10-10-9--------| 
B|---------------------7---------10-10-10-----------------10-10--| 
G|-6-6-6-6/7-----9-9-9-----7-7------------9----------------------| 
D|---------------------------------------------------------------| 
A|---------------------------------------------------------------| 
E|---------------------------------------------------------------| 

e|----7-9-9/10-----12-10-9---------------------------------------| 
B|-10----------------------10-7-----7-8--10-10----------7--------| 
G|----------------------------------------------9-----9-----9-9--| 
D|---------------------------------------------------------------| 
A|---------------------------------------------------------------| 
E|---------------------------------------------------------------| 

e|----7-9-9/10-----12-10-9---------------------------------------| 
B|-10----------------------10-7-----7-8--10-10----------7--------| 
G|----------------------------------------------9-----9-----9-9--| 
D|---------------------------------------------------------------| 
A|---------------------------------------------------------------| 
E|---------------------------------------------------------------| 

e|----------------------------10-9-------------------------------| 
B|-7---10--------------------------10-----7-7--------------------| 
G|---9--------6-7-9---------------------------7-9----------------| 
D|------------------7--------------------------------------------| 
A|---------------------------------------------------------------| 
E|---------------------------------------------------------------| 

e|----------------------------10-9--------10-10-9-9/12-----------| 
B|-7---10--------------------------10----------------------------| 
G|---9--------6-7-9----------------------------------------------| 
D|------------------7--------------------------------------------| 
A|---------------------------------------------------------------| 
E|---------------------------------------------------------------| 

e|----12-10-9---------| 
B|------------10\7----| 
G|--------------------| 
D|--------------------| 
A|--------------------| 
E|--------------------| 


************************************ 

| /  Slide up 
| \  Slide down 

************************************ 
	  

Search Paypal
auto scroll beats size up size down change color hide chords drawings
tab show chords e-chords YouTube Clip e-chords hide all tabs e-chords go to top tab