Misc Cartoons

home > Misc Cartoons

Dragon Age Inquisition - The Dawn Will Come Tab

Misc Cartoons

Difficulty: BeginnerBeginner

by robepoiel

tuner correct add songbook print version text version save to e-mail
chordsukulelecavacokeyboardtabbassdrumsharmonicsflute Guitar Pro
chords

Dragon Age Inquisition - The Dawn Will Come

  		 
                                                                (x2) 
e|-------------------------------------------------------------| 
B|-------------------------------------------------------------| 
G|---------------------0---2-----------------------------------| 
D|--------2--2----2-4-----------2---------2--2-----------------| 
A|---0--------------------------------0-----------0---3---2----| 
E|------------------------------------------------------------3| 

e|-------------------| 
B|-------------------| 
G|-------------------| 
D|-------------------| 
A|-------------------| 
E|--3---0--5--5------| 

                                                                (x2) 
e|-------------------------------------------------------------| 
B|-------------------------------------------------------------| 
G|---------------------0---2-----------------------------------| 
D|--------2--2----2-4-----------2---------2--2-----------------| 
A|---0--------------------------------0-----------0---3---2----| 
E|------------------------------------------------------------3| 

e|-------------------| 
B|-------------------| 
G|-------------------| 
D|-------------------| 
A|-------------------| 
E|--3---0--5--5------| 

                                                                (x2) 
e|-------------------------------------------------------------| 
B|-------------------------------------------------------------| 
G|---------------------0---2-----------------------------------| 
D|--------2--2----2-4-----------2---------2--2-----------------| 
A|---0--------------------------------0-----------0---3---2----| 
E|------------------------------------------------------------3| 

e|-------------------| 
B|-------------------| 
G|-------------------| 
D|-------------------| 
A|-------------------| 
E|--3---0--5--5------| 
 
	  

Search Paypal
auto scroll beats size up size down change color hide chords drawings
tab show chords e-chords YouTube Clip e-chords hide all tabs e-chords go to top tab