Misc Cartoons

home > Misc Cartoons

Death Note - L No Nakama Tab

Misc Cartoons

Difficulty: nolevelnolevel

by hebealmeida

tuner correct add songbook print version text version save to e-mail
chordsukulelecavacokeyboardtabbassdrumsharmonicsflute Guitar Pro
chords

Death Note - L No Nakama

  		    
e|----------------------------------|-------------------------------------|      
B|----------------------------------|-------------------------------------|      
G|-----------------------------5----|---------------------------7---------|    
D|----------5h7--7--5--7--5--7------|--------5h7--7--5--7--5--7-----------|      
A|-----5/7--------------------------|-----7-------------------------------|      
E|---5------------------------------|-------------------------------------|      

                                                                              Only play these two on the intro 

e|--------------------------------|---------------------------------------| 
B|--------------------------------|---------------------------------------| 
G|--------------------------------|------------------------5--------------| 
D|------5h7--7--5--7--5--5--------|-----5h7--7--5--7--5--7----------------| 
A|--7----------------------7------|--7------------------------------------| 
E|--------------------------------|---------------------------------------| 


e|-----------------------------| 
B|---6--5----------6-----------| 
G|--------5----------5---------| 
D|-----------7--7-------7--7---|  x3 
A|-----------------------------| 
E|-----------------------------| 

  
e|--------------------------5--| 
B|--6--5-----8--5--8--5--8-----| 
G|-------5---------------------| 
D|-----------------------------| 
A|-----------------------------| 
E|-----------------------------| 


e|------------------------------------|-------------------------------------| 
B|------------------------------------|-------------------------------------| 
G|------------------------------------|----------------------------7--------| 
D|------------5h7--7--5--7--5--5------|--------5h7--7--5--7--5--7-----------| 
A|-------5/7----------------------7---|-----7-------------------------------| 
E|------------------------------------|-------------------------------------| 

e|-----------------------------------|-------------------------------------| 
B|-----------------------------------|-------------------------------------| 
G|-----------------------------------|----------------------------5--------| 
D|----------5h7--7--5--7--5--5-------|--------5h7--7--5--7--5--7-----------| 
A|-------7------------------------7--|-----7-------------------------------| 
E|-----------------------------------|-------------------------------------| 

Repeats until the song ends. 


************************************ 

| h   Hammer-on 
| /   Slide up 
| \   Slide down 

************************************ 
	  

Search Paypal
auto scroll beats size up size down change color hide chords drawings
tab show chords e-chords YouTube Clip e-chords hide all tabs e-chords go to top tab