Misc Cartoons

Carry On My Wayward Son - Randy Marsh Version (acoustic) Tab

Misc Cartoons

Difficulty: nolevelnolevel

by tamamoreira

tuner correct add songbook print version text version save to e-mail
chordsukulelecavacokeyboardtabbassdrumsharmonicsflute Guitar Pro
close

there isn't a video lesson for this song

chords

Carry On My Wayward Son - Randy Marsh Version (acoustic)

  		
E|----------------------------|----------------------------| 
B|----------------------------|----------------------------| 
G|-----------6-----------5----|-----------3-----------5----| 
D|--------8-----------6-------|--------4-----------6-------| 
A|-----8-----------6----------|-----4-----------6----------| 
E|--6-----------4-------------|--2-----------4-------------| 


E|----------------------------|----------------------------| 
B|----------------------------|----------------------------| 
G|-----------6-----------5----|-----------3-----------5----| 
D|--------8-----------6-------|--------4-----------6-------| 
A|-----8-----------6----------|-----4-----------6----------| 
E|--6-----------4-------------|--2-----------4-------------| 


E|----------------------------|----------------------------| 
B|-----------7-----------6----|-----------4----------------| 
G|--------8-----------6-------|--------4--------4-----6----| 
D|-----8-----------6----------|-----4----------------------| 
A|--6-----------4-------------|--2-----------2-----4-------| 
E|----------------------------|----------------------------| 


E|----------------------------|--------------4-------------| 
B|-----------7-----------6----|-----------------4----------| 
G|--------8-----------6-------|-----------5--------5-------| 
D|-----8-----------6----------|--------6--------------6----| 
A|--6-----------4-------------|-----6----------------------| 
E|----------------------------|--4-------------------------| 
	  

auto scroll beats size up size down change color hide chords drawings
tab show chords e-chords YouTube Clip e-chords hide all tabs e-chords go to top tab

share with facebook

Search Paypal