Misc Cartoons

Ashita No Joe - Joes Whistle Tab

Misc Cartoons

Difficulty: nolevelnolevel

by renejunior

tuner correct add songbook print version text version save to e-mail
chordsukulelecavacokeyboardtabbassdrumsharmonicsflute Guitar Pro
close

there isn't a video lesson for this song

chords

Ashita No Joe - Joes Whistle

  		
e|-------------------------------------------------------------------------------| 
B|------------------------------10-12---------12------13--10--12-12-12-10--------| 
G|-----9--12-11-9-8------11--12-------11--9-9-----9-9---------------------12-11--| 
D|-9-9---------------9-9---------------------------------------------------------| 
A|-------------------------------------------------------------------------------| 
E|-------------------------------------------------------------------------------| 

e|-------------------------------------------------------------------------------| 
B|----------12-12-----16-17--------------17--19-19-19------------17-17-15--13-12-| 
G|-12-12-9--------12--------16--16-16-16--------------19--17-17------------------| 
D|-------------------------------------------------------------------------------| 
A|-------------------------------------------------------------------------------| 
E|-------------------------------------------------------------------------------| 

e|-----------------------------------------------------------------------------------------| 
B|----------12-10-12-----------10-12--12-13-12-10-12--------9-12----/17-----------15-13-12-| 
G|-12-12-9-----------11--12-12------------------------12-12-------9-----17--16-14----------| 
D|-----------------------------------------------------------------------------------------| 
A|-----------------------------------------------------------------------------------------| 
E|-----------------------------------------------------------------------------------------| 


e|-------------------------------------------------------------------------------| 
B|----------10-------------------------------------------------------------------| 
G|-11-11-12-----11------9--------------------------------------------------------| 
D|-----------------12-9----------------------------------------------------------| 
A|-------------------------------------------------------------------------------| 
E|-------------------------------------------------------------------------------| 



************************************ 

| /  Slide up 

************************************ 
	  

Search Paypal
auto scroll beats size up size down change color hide chords drawings
tab show chords e-chords YouTube Clip e-chords hide all tabs e-chords go to top tab

share with facebook