Minus The Bear

Steel And Blood

Minus The Bear

tabs

by  JOV-CORREA

save to print version add songbook text version e-mail correct tuner
chordsukulelecavacokeyboardtabbassdrumsharmonicaflute Guitar Pro
close

there isn't a video lesson for this song

chords

Steel And Blood

	  		
Intro/Verses 


e|---------------------------------------------------------------| 
B|---------------------------------------------------------------| 
G|-8--8--9--9-----6--6--8-----4--4--6--6--3--3-------------------| 
D|-x--x--x--x-----x--x--x-----x--x--x--x--x--x-------------------| 
A|-6--6--7--7-----4--4--6-----2--2--4--4--1--1-------------------| 
E|-0--0--0--0-----0--0--0-----0--0--0--0--0--0-------------------| 


Chorus 
------ 
     
{Figure 1} 
  
Gtr. 1                "Two   be--come       ooone" 
e|-----0--0--0--0---------------------------------------| 
B|-----0--5--0--5---------------------------------------| 
G|-----4--4--4--4------11----8----6---(18)--8--8--------| 
D|-----4--4--4--4-------x----x----x-OR(x)---x--x--------| 
A|-----0--0--0--0-------9----6----4---(16)--6--6--------| 
E|------------------------------------------------------|   
                                                               
Gtr. 2                                                           
e|-----0--0--0--0---------------------------------------|      
B|-----0--0--0--0---------------------------------------|    
G|-----1--1--1--1--------SAME CHORDS AS GTR 1 ABOVE-----| 
D|-----2--2--2--2---------------------------------------| 
A|-----2--2--2--2---------------------------------------| 
E|-----0--0--0--0---------------------------------------| 


{Figure 2} 

Gtr. 1                 "Cacophony of a car crash " 
e|-----0--0--0--0---------------------------------------| 
B|-----0--5--0--5---------------------------------------| 
G|-----4--4--4--4-------8----6----11---6---4--4---------| 
D|-----4--4--4--4-------x----x----x----x---x--x---------| 
A|-----0--0--0--0-------6----4----9----4---2--2---------| 
E|------------------------------------------------------|   
                                                               
Gtr. 2                                                           
e|-----0--0--0--0---------------------------------------|      
B|-----0--0--0--0---------------------------------------|    
G|-----1--1--1--1--------SAME CHORDS AS GTR 1 ABOVE-----| 
D|-----2--2--2--2---------------------------------------| 
A|-----2--2--2--2---------------------------------------| 
E|-----0--0--0--0---------------------------------------| 





Pre-Bridge 
---------- 

Gtr. 1 
e|----------------------------------9----------------9-11-12-(x8)-12\--------| 
B|-------------------9-11-12--11-9----9--(x3)-THEN---------------------------| 
G|---8--8--9--9--------------------------------------------------------------| 
D|---x--x--x--x--------------------------------------------------------------| 
A|---6--6--7--7--------------------------------------------------------------| 
E|---0--0--0--0--------------------------------------------------------------|  
                                                                                  
Gtr. 2                                                                              
e|---------------------------------------------------------------------------|    
B|---------------------------------------------------------------------------|  
G|---8--8--9--9--------------------------------------------------------------| 
D|---x--x--x--x--------------------------------------------------------------| 
A|---6--6--7--7------------------4------------------4--6--7-(X8)-7\----------| 
E|---0--0--0--0------4-6-7--6-4----4--(X3)--THEN-----------------------------| 



Bridge 
------ 


Gtr.1 
e|-------------------------------------------------------| 
B|-------------------------------------------------------| 
G|--11--11---11--8--8---8--6--6--6-----------------------| 
D|--x---x----x---x--x---x--x--x--x----6--8--9------------| 
A|--9---9----9---6--6---6--4--4--4----x--x--x------------|  
E|--0---0----0---0--0---0--0--0--0----4--6--7------------|    
                                                               
                                                                 
Gtr.2                                                          
e|-------------------------------------------------------|    
B|-------------------------------------------------------|  
G|--11--11---11--8--8---8--18--18--18--------------------| 
D|--x---x----x---x--x---x--x---x---x----6--8--9----------| 
A|--9---9----9---6--6---6--16--16--16---x--x--x----------| 
E|--0---0----0---0--0---0--0---0---0----4--6--7----------| 


Repeat Chorus after Bridge until the end of the song 
 
		  

See also:

tabs Red Hot Chili Peppers - Under the Bridge (completo) tabs Tonic - If You Could Only See tabs Incubus - Pardon Me tabs Red Hot Chili Peppers - Dani california (solo) tabs Red Hot Chili Peppers - Can't Stop tabs Red Hot Chili Peppers - Under the Bridge
e-chords

Other versions:

tabs Minus The Bear - Steel And Blood
auto scroll beats size up size down change color hide chords drawings
tab show chords e-chords YouTube Clip e-chords hide all tabs e-chords go to top tab

share