Ministri

Noi Fuori

Ministri

tabs

by  TERR_SCHMITZ

save to print version add songbook text version e-mail correct tuner
chordsukulelecavacokeyboardtabbassdrumsharmonicaflute Guitar Pro
close

there isn't a video lesson for this song

chords

Noi Fuori

	  		
Intro 

E|-----------------------------------------------------------------------------------------------| 
B|-----------------------------------------------------------------------------------------------| 
G|-----------------------------------------------------------------------------------------------| x2 
D|-----------------------------------------------------------------------------------------------| 
A|-5-5-5-5---------------5-5-5-5-0-0-0-0-0-0-0-0-5-5-5-5-3-3-3-3-3-3-3-3-5-5-5-5-----------------| 
E|---------0-0-0-0-0-0-0---------------------------------------------------------0-0-0-0-0-0-0-0-| 


Verse 

E|-----------------------------------------------------------------------------------------------| 
B|-----------------------------------------------------------------------------------------------| 
G|-----------------------------------------------------------------------------------------------|x2 
D|-----------------------------------------------------------------------------------------------| 
A|-5-5-5-5---------------5-5-5-5-0-0-0-0-0-0-0-0-5-5-5-5-3-3-3-3-3-3-3-3-5-5-5-5-----------------| 
E|---------0-0-0-0-0-0-0---------------------------------------------------------0-0-0-0-0-0-0-0-| 


Chorus 

E|---------------------------------------------------------| 
B|---------------------------------------------------------| 
G|-------------4-4-4-4-4-4-5-5-5-5-5-5---------------7-7-7-| x2 
D|-2-2-2-2-2-2-4-4-4-4-4-4-5-5-5-5-5-5-7----7-7-7----7-7-7-| 
A|-2-2-2-2-2-2-2-2-2-2-2-2-3-3-3-3-3-3-7----7-7-7----5-5-5-| 
E|-0-0-0-0-0-0-------------------------5----5-5-5----------| 


Intro 

E|-----------------------------------------------------------------------------------------------| 
B|-----------------------------------------------------------------------------------------------| 
G|-----------------------------------------------------------------------------------------------| x2 
D|-----------------------------------------------------------------------------------------------| 
A|-5-5-5-5---------------5-5-5-5-0-0-0-0-0-0-0-0-5-5-5-5-3-3-3-3-3-3-3-3-5-5-5-5-----------------| 
E|---------0-0-0-0-0-0-0---------------------------------------------------------0-0-0-0-0-0-0-0-| 


Verse 

E|-----------------------------------------------------------------------------------------------| 
B|-----------------------------------------------------------------------------------------------| 
G|-----------------------------------------------------------------------------------------------| x2 
D|-----------------------------------------------------------------------------------------------| 
A|-5-5-5-5---------------5-5-5-5-0-0-0-0-0-0-0-0-5-5-5-5-3-3-3-3-3-3-3-3-5-5-5-5-----------------| 
E|---------0-0-0-0-0-0-0---------------------------------------------------------0-0-0-0-0-0-0-0-| 


Chorus 

E|---------------------------------------------------------| 
B|---------------------------------------------------------| 
G|-------------4-4-4-4-4-4-5-5-5-5-5-5---------------7-7-7-| x2 
D|-2-2-2-2-2-2-4-4-4-4-4-4-5-5-5-5-5-5-7----7-7-7----7-7-7-| 
A|-2-2-2-2-2-2-2-2-2-2-2-2-3-3-3-3-3-3-7----7-7-7----5-5-5-| 
E|-0-0-0-0-0-0-------------------------5----5-5-5----------| 


Bridge 

E|-----------------------------------| 
B|-----------------------------------| 
G|-12-------8---------------10-------| x4 (ritmo a piacere, Q.B.) 
D|-12-------8-------8-------10-------| 
A|-10-------6-------8-------8--------| 
E|------------------6----------------| 


Chorus 2 

E|----------------------------| 
B|----------------------------| 
G|------7----8----------10----| x4 (ritmo come rit 1) 
D|-5----7----8----10----10----| 
A|-5----5----6----10----8-----| 
E|-3--------------8-----------| 


Solo Voice 


Outro 

E|----------------------------| 
B|----------------------------| 
G|------7----8----------10----| x8 (ritmo come rit 1) 
D|-5----7----8----10----10----| 
A|-5----5----6----10----8-----| 
E|-3--------------8-----------| 


                                  RE 
...noi fuori non sappiamo, cosa fare.. 

mi raccomando i cortili coi pavoni 
		  

auto scroll beats size up size down change color hide chords drawings
tab show chords e-chords YouTube Clip e-chords hide all tabs e-chords go to top tab

share