Mineral

The Last Word Is Rejoice

Mineral

tabs

by  JOV-CORREA

save to print version add songbook text version e-mail correct tuner
chordsukulelecavacokeyboardtabbassdrumsharmonicaflute Guitar Pro
close

there isn't a video lesson for this song

chords

The Last Word Is Rejoice

	  		

Intro: x4 
e|---------------------------------------| 
B|-----------------------------0---------| 
G|--------0--------2--------0-----0------| 
D|-----5--------4-----2------------------| 
A|-/7--------5-----------3-----------3---| 
E|---------------------------------------| 
 |                                       | 
e|---------------------------------------| 
B|--------3--------------------0---------| 
G|-----0-----4-4/2/0--------0-----0------| 
D|-/4-----------------2--------------0---| 
A|-----------------------3---------------| 
E|---------------------------------------| 

x6 
e|--------------------------------------| 
B|-1--------0---------------------------| 
G|-------------------2------------------| 
D|--------------------------------------| 
A|----3--2-----3--2-----3--2-----3------| 
E|----------------------------3-----3---| 
 |                                      | 
e|--------------------------------------| 
B|-------3--------3--------3--------3---| 
G|-5--------4--------2-----------0------| 
D|----5--------5--------5----/4---------| 
A|--------------------------------------| 
E|--------------------------------------| 
 |                                      | 
e|--------------------------------------| 
B|-5--------7--------8------------------| 
G|--------------------------------------| 
D|--------------------------------------| 
A|--------------------------------------| 
E|--------------------------------------| 
  *this part comes in after 4 times* 


Verse: x4 
e|------------------------------------------------| 
B|------------------------------------------------| 
G|----0-----------0-----------0-------------------| 
D|--------4-----------4-----------4---------------| 
A|-3----------3-----------2---------------0---2---| 
E|------------------------------------3-----------| 
 |                                                | 
e|------------------------------------------------| 
B|-----3----------3-----------3-------------------| 
G|----------0-----------0-----------0-----4---2---| 
D|---0----2-----0-----2-----0-----2-----0---------| 
A|-3----3-----3-----3-----2-----2-----------------| 
E|------------------------------------3-----------| 
 |                                                | 
e|------------------------------------------------| 
B|-8----------10----------12----------5---5---7---| 
G|------------------------------------------------| 
D|------------------------------------------------| 
A|------------------------------------------------| 
E|------------------------------------------------| 


 Then repeat everything again 


Outro: x4 
e|-8-8-8-8-8---7-7-7-7-7---5-5-5-5-5---3-3-5-5-7-7-| 
B|-5-5-5-5-5---5-5-5-5-5---3-3-3-3-3---3-3-3-3-3-3-| 
G|-------------------------------------------------| 
D|-------------------------------------------------| 
A|-------------------------------------------------| 
E|-------------------------------------------------| 
 | 
e|-------------------------------------------------| 
B|---5-5-5-5-----3-3-3-3------5-5-5-5----8-8-8-8-8-| 
G|-----------0-----------0------------0------------| 
D|-------------------------------------------------| 
A|-------------------------------------------------| 
E|-------------------------------------------------| 

x4 
e|--------------------------------------------------| 
B|--------------------------------------------------| 
G|-------------------------------------9-9-9-111111-| 
D|-5-5-5-5-5-5-7-7-7-7-7-7-9-9-9-9-9-9-x-x-x-x-x-x--| 
A|-5-5-5-5-5-5-7-7-7-7-7-7-9-9-9-9-9-9-7-7-7-9-9-9--| 
E|-3-3-3-3-3-3-5-5-5-5-5-5-7-7-7-7-7-7--------------| 
 |                                                  | 
e|-101010101010101010101010101010101010-------------| 
B|-1010101010101010101010101010101010108-8-8-8-8-8--| 
G|--------------------------------------------------| 
D|--------------------------------------------------| 
A|--------------------------------------------------| 
E|--------------------------------------------------| 
 |                                                  | 
e|--------------------------------------------------| 
B|-8---8-8-8-8-10---1010101012--12121212-5---5---7--| 
G|-x---x-x-x-x-x----x-x-x-x-x---x-x-x-x--x---x---x--| 
D|-5---5-5-5-5-7----7-7-7-7-9---9-9-9-9--2---2---4--| 
A|--------------------------------------------------| 
E|--------------------------------------------------| 

x1 and a half times        *  
e|---------------------10---------------------------| 
B|-12--12--12--10--10------12--12--12--10--10--10---| 
G|---12--12--12--12--12--12--12--12--12--11--11--11-| 
D|--------------------------------------------------| 
A|--------------------------------------------------| 
E|--------------------------------------------------| 
 |                         *                        | 
e|--------------------------------------------------| 
B|-8-----------10----------12-----------5---5---7---| 
G|--------------------------------------------------| 
D|--------------------------------------------------| 
A|--------------------------------------------------| 
E|--------------------------------------------------| 
                           *End here on second time 
		  

auto scroll beats size up size down change color hide chords drawings
tab show chords e-chords YouTube Clip e-chords hide all tabs e-chords go to top tab

share