Miles Kane

Give Up

Miles Kane

tabs

by  AMAN_CLAUDINO

save to print version add songbook text version e-mail correct tuner
chordsukulelecavacokeyboardtabbassdrumsharmonicaflute Guitar Pro
close

there isn't a video lesson for this song

chords

Give Up

	  		
Intro/Outro: 
|--------------------------------------------------------------------------| 
|--------------------------------------------------------------------------| 
|12~~-12h13h12--10-12~~-12h13h12-10-12-8----------8-10-10--12h13h12-10(x2)-|  
|-----------------------------------------10~~--10-------------------------| 
|--------------------------------------------------------------------------| 
|--------------------------------------------------------------------------| 

Verse: 
|---------------------------------------------| 
|---------------------------------------------| 
|---------------------------------------------| 
|10----13-10----5-10----10-13--13-8-8-8-8-----| 
|10----13-10----5-10----10-13--13-8-8-8-8-----| 
|8-----11-8-----3-8-----8--11--11-6-6-6-6(x2)-| 

Bridge: 
|------------------------------------| 
|------------------------------------| 
|------------------------------------| 
|------------------------------------| 
|------------------------------------| 
|4(x8)-8(x4)-2(x4)-4(x8)-3(x4)-6(x4)-| 

Chorus: 
|-------------------------------------------------------------------| 
|-------------------------------------------------------------------| 
|-------------------------8--8----------10-------------8--8---------| 
|10--10--10-10-10-------6-8--8-8-8-8-8--10-----------6-8--8-8-8-8-8-| 
|10--10--10-10-10-8-6-8---6--6-8-8-8-8--8-(x8)-8-6-8---6--6-8-8-8-8-| 
|8---8---8--8--8---------------6-6-6-6----------------------6-6-6-6-| 

|----------------------------------------------------------------| 
|----------------------------------------------------------------| 
|-------------------------------------------10-------------------| 
|10---10---10-10-10--10-13-13-13-13-8-8-8-8-10-----13-13-8-8-8-8-| 
|10---10---10-10-10--10-13-13-13-13-8-8-8-8-8-(x6)-13-13-8-8-8-8-| 
|8----8----8--8--8---8--11-11-11-11-6-6-6-6--------11-11-6-6-6-6-| 

 
		  

See also:

tabs Keaton Henson - If I'm To Die (acoustic) tabs From Indian Lakes - I Am Aware tabs Seahaven - Its Over (intro) tabs Daughter - Smother tabs Daughter - Youth tabs Dungen - Fredag
e-chords

Other versions:

tabs Miles Kane - Give Up tabs Half Moon Run - Give Up tabs Knuckle Puck - Give Up
auto scroll beats size up size down change color hide chords drawings
tab show chords e-chords YouTube Clip e-chords hide all tabs e-chords go to top tab

share