Miles Davis

All Of You

Miles Davis

tabs

by  DEIVCAVALCANTI

save to print version add songbook text version e-mail correct tuner
chordsukulelecavacokeyboardtabbassdrumsharmonicaflute Guitar Pro
close

there isn't a video lesson for this song

chords

All Of You

	  		

What's in the bag homies?! I was kinda bored so i decided i would tab a miles davis song what fun! k well first 
 a few disclaimers,its not perfect and where i decided to put the notes on the fretboard may not be the most  
efficient place but i am quite positive that the notes are right. concerning the hammer-ons and slides and  
vibratos etc etc they are my interpretation so ignore them if you wish. The little " **?" next to certain lines 
 was what i put to remind myself it may not be 100%. My objective with this was to help people see the way that 
 miles and coltrane think so that you can hopefully solo in the style of these aforementioned demi-gods 
i also only tabbed roughly two minutes of it but should give you a good start. enjoy :) 


Tuning: standard 


ALL OF YOU BY MILES DAVIS trumpet tab 
0:00 
e|--------------------------------------------------| 
B|--------------------------------8s9---------------| 
G|-----------12s13~--12~12--------------------------| 
D|-12-13-15------------------8-9--------------------| 
A|--------------------------------------------------| 
E|--------------------------------------------------| 
0:06 
e|--------------------------------------------------| 
B|--8-9-8-8--------------------11-------------------| 
G|--------------------7-8---------------------------| 
D|---------------8-10------s10----------------------| 
A|--------------------------------------------------| 
E|--------------------------------------------------| 
0:11 
e|--------------------------------------------------| 
B|--11-13~-11-13-11h13------------------------------| 
G|--------------------------------------------------| 
D|----------------------12-12-----------------------| 
A|--------------------------------------------------| 
E|--------------------------------------------------| 
0:19 
e|--------------------------------------------------| 
B|-11-11-11-11-11-s14-13--12-11---------------------| 
G|--------------------------------------------12-13-| 
D|-------------------------------9---12h13h15-------| 
A|--------------------------------------------------| 
E|--------------------------------------------------| 
0:25 
e|--------------------------------------------------| 
B|-11~-----------s9---8-9-8-8----------------13--13-| 
G|----12-----------------------------7-8-------12---| 
D|---------8-9------------------8-10-----s10--------| 
A|--------------------------------------------------| 
E|--------------------------------------------------| 
0:36 
e|--------------------------------------------------| 
B|-13-15-15-15-15-15-13-15-16-15-13-----------------| 
G|----------------------------------12~-------------| 
D|--------------------------------------------------| 
A|--------------------------------------------------| 
E|--------------------------------------------------| 
0:41 
e|------------------------15---------------------------| 
B|-------11-13~~-15-16-18-----18-16p15--13p11----------| 
G|-12-13--------------------------------------12B(13)--| 
D|-----------------------------------------------------| 
A|-----------------------------------------------------| 
E|-----------------------------------------------------| 
0:49 
e|------------------------------------11---------------------| 
B|----------------------11------11-------12-11-11------------| 
G|-15-13-12----------11----13------13-------------13---------| 
D|-------------11h13---------------------------------13------| 
A|------------------------------------------------------14p13| 
E|-----------------------------------------------------------|   
0:55 
e|--------------------------------------------------| 
B|---------------------------------14-15--13--------| 
G|-s12-10--------------------15-17----------------------| 
D|--------13-10-----15-17-18------------------------------| 
A|--------------------------------------------------| 
E|--------------------------------------------------| 

1:00 
e|--------------------------15-18~---16p15p13-------------| 
B|-----------------------16-------------------16-15-13----| 
G|-12p9-11------------17-------------------------------15-|------------------**? 
D|-----------15-17-18-------------------------------------| 
A|--------------------------------------------------------| 
E|--------------------------------------------------------| 

1:06 
e|-----------------------------------15-16~--15-13--------------| 
B|--------------------------15-16-18--------------16---15-13-12-| 
G|--------------------15-17-------------------------------------| 
D|---17-15------17-18-------------------------------------------| 
A|---------18---------------------------------------------------| 
E|--------------------------------------------------------------| 
1:14 
e|--------------------------------------------------| 
B|-11-----11----------------------------------------| 
G|----13-----13-13-12-12--10-10-8-7-----------------|---------------**? 
D|----------------------------------10--------------| 
A|--------------------------------------------------| 
E|--------------------------------------------------| 
1:20 
e|--------------------------------------------------| 
B|-15-15-15-15-15-13-15-16-15-13--------------------| 
G|-------------------------------s12~12-------------| 
D|--------------------------------------------------| 
A|--------------------------------------------------| 
E|--------------------------------------------------| 
1:27 
e|-----------------------------------------------------| 
B|----------13-13-13-----------------------------------| 
G|-12-13-15----------15p13p12----12-13-14-15-15~--12-12| 
D|----------------------------15-----------------------| 
A|-----------------------------------------------------| 
E|-----------------------------------------------------| 
1:34 
e|--------------------------------15~---------------| 
B|-------------------------13--16-------------------| 
G|-------------------13h15--------------------------| 
D|-14-17-15p14-15h17--------------------------------| 
A|--------------------------------------------------| 
E|--------------------------------------------------| 
1:37 
e|-13-13-12-12----11---------11---------------------| 
B|-------------13-----10--------13------------------| 
G|-----------------------11--------12---------------| 
D|--------------------------------------------------| 
A|--------------------------------------------------| 
E|--------------------------------------------------| 
1:45 
e|-----------------------------13-15-16-15-15-------| 
B|--------------------13-15-16----------------------| 
G|--------------13-15-------------------------------| 
D|-17-14-15-17--------------------------------------| 
A|--------------------------------------------------| 
E|--------------------------------------------------| 
1:50 
e|-13-13-12-12--------------------------------------| 
B|------------------13------15-----16---------------| 
G|--------------14------13------15------------------| 
D|--------------------------------------------------| 
A|--------------------------------------------------| 
E|--------------------------------------------------| 


JOHN COLTRANE SAXOPHONE TAB 
1:54 
e|--------------------------------------------------------| 
B|--------------------------------------------------------| 
G|-----12----------------12-------------------------------| 
D|--------15p13p12-13-15----12/13----------s13---------s12| 
A|-s13-----------------------------14-13-11----13p11p10---| 
E|--------------------------------------------------------| 
1:58 
e|--------------------------------------------------| 
B|---------------11-9-9-8-8--------8/9/8------------| 
G|--------8h9h11----------------10------------------| 
D|-8h9h11-------------------------------------------| 
A|--------------------------------------------------| 
E|--------------------------------------------------| 
2:03 
e|--------------------------------------------------| 
B|--------------------------------s13-11-11h13~-----| 
G|-------10s8---------------------------------------|-----------**? 
D|-10s12----------10p9p8--10p9h10-------------------| 
A|-------------10-----------------------------------| 
E|--------------------------------------------------| 
2:10 
e|--------------------------------------------------| 
B|-13p11-13p11-13-----------------------------------| 
G|--------------------------------------------------|-------------**? 
D|----------------12-12s15---15p13p12---------------| 
A|------------------------------------15p13p12------| 
E|---------------------------------------------15---| 
2:14 
e|--------------------------------------------------| 
B|--------------------------------------------------| 
G|----12--------------------------------------------| 
D|-12----15-12--------------------------------------| 
A|-------------15-13--------------------------------| 
E|--------------------------------------------------| 
************************************ 

| /   slide up 
| \   slide down 
| h   hammer-on 
| p   pull-off 
| ~   vibrato 


************************************ 
		  

See also:

tabs Lena Horne - Whispering tabs JJ Cale - Thirteen Days tabs Johnny Mercer - Autumn Leaves tabs Victor Young - Stella By Starlight tabs Nat King Cole - Autumn Leaves tabs John Coltrane - Locomotion
e-chords

Other versions:

tabs Cathy Davey - All Of You tabs Miles Davis - All Of You
auto scroll beats size up size down change color hide chords drawings
tab show chords e-chords YouTube Clip e-chords hide all tabs e-chords go to top tab

share