Miku Hatsune

World Is Mine

Miku Hatsune

tabs Advanced advanced

by  CARLLUZ

save to print version add songbook text version e-mail correct tuner
chordsukulelecavacokeyboardtabbassdrumsharmonicaflute Guitar Pro
close

there isn't a video lesson for this song

chords

World Is Mine

	  		Intro: 

 
E|----------------------------------------------------------------| 
B|------13----------------------------------------------------13--| 
G|--10--------10--10--------------10--10--12--13--12--10----------| 
D|--------------------13------13--------------------------13------| 
A|----------------------------------------------------------------| 
E|----------------------------------------------------------------| 
 

 
E|------------------------------------------------------------------------11--|----------| 
B|----------13------------------------------------------------------13--------|----------| 
G|------10--------10----10----------10--10------10--10----13--13--------------|------10--| 
D|--13----------------------13--13--------------------------------------------|--13------| 
A|----------------------------------------------------------------------------|----------| 
E|----------------------------------------------------------------------------|----------| 
 

 
E|-------------------------------------|-------------------------------|----------------------------------------------| 
B|-------------------------------------|-------------------------------|----------------------------------------------| 
G|-------------------------------------|-------------------------------|----------------------------8---7---6------8--| 
D|--3--3--3---6----3---3--3----6----8--|--3--3---6----3---3--3---6--8--|--3--3--3---6----3---3--3---8---7---6------8--| 
A|--3--3--3---6----3---3--3----6----8--|--3--3---6----3---3--3---6--8--|--3--3--3---6----3---3--3---6---5---4------6--| 
E|--1--1--1---4----1---1--1----4----6--|--1--1---4----1---1--1---4--6--|--1--1--1---4----1---1--1---------------------| 
 


Verse/Estrofa: 

GUITAR 1: 

 
E|-----------------------------------------------------|---------------------------------------------------------| 
B|-----------------------------------------------------|---------------------------------------------------------| 
G|-----------------------------------------------------|---------------------------------------------------8--8--| 
D|--3--x--x--x---x--x--x--x---x--x--x--x---x--x--x--x--|--x--x--x--x---x--x--x--x---x--x--x--x---x--x--x---8--8--| 
A|--3--x--x--x---x--x--x--x---x--x--x--x---x--x--x--x--|--x--x--x--x---x--x--x--x---x--x--x--x---x--x--x---6--6--| 
E|--1--x--x--x---x--x--x--x---x--x--x--x---x--x--x--x--|--x--x--x--x---x--x--x--x---x--x--x--x---x--x--x---------| 
 

GUITAR 2: 

 
E|------------------------------------------------|--------------------------------------------------------| 
B|------------------------------------------------|----------------------------12--11----------------------| 
G|----------10--10--------------------------------|------10----------10----13----------13--13--10----------| 
D|--10--13----------13--13----10--13--10--13--10--|--13------13--13--------------------------------13--13--| 
A|------------------------------------------------|--------------------------------------------------------| 
E|------------------------------------------------|--------------------------------------------------------| 
 

GUITAR 1: 

 
E|-----------------------------|-------------------------------------| 
B|-----------------------------|-----------------------------12--12--| 
G|--6--6---7--7---8--8---9--9--|--10--10---12--12---13--13---11--11--| 
D|-----------------------------|-----------------------------9---9---| 
A|--4--4---5--5---6--6---7--7--|--8---8----10--10---11--11-----------| 
E|-----------------------------|-------------------------------------| 
 

GUITAR 2: 

 
E|------------------------------------------------------------| 
B|--------------------------------------------12--11----------| 
G|------10--13----------------10------13--10----------13--10--| 
D|--13------------13--10--13------13--------------------------| 
A|------------------------------------------------------------| 
E|------------------------------------------------------------| 
 

GUITAR 1: 

 
E|-----------------------------------------------------|---------------------------------------------------------| 
B|-----------------------------------------------------|---------------------------------------------------------| 
G|-----------------------------------------------------|---------------------------------------------------8--8--| 
D|--3--x--x--x---x--x--x--x---x--x--x--x---x--x--x--x--|--x--x--x--x---x--x--x--x---x--x--x--x---x--x--x---8--8--| 
A|--3--x--x--x---x--x--x--x---x--x--x--x---x--x--x--x--|--x--x--x--x---x--x--x--x---x--x--x--x---x--x--x---6--6--| 
E|--1--x--x--x---x--x--x--x---x--x--x--x---x--x--x--x--|--x--x--x--x---x--x--x--x---x--x--x--x---x--x--x---------| 
 

GUITAR 2: 

 
E|--------------------------------------------------------|--------------------------------------------------------| 
B|--------------------------------------------------------|------------------------------------12--11--------------| 
G|----------10--------------------------------------------|----------------------10--10----10----------13--10------| 
D|--10--13--------10--13--13--13--10--13--10--13--10------|--13--10--13--10--13--------------------------------13--| 
A|----------------------------------------------------13--|--------------------------------------------------------| 
E|--------------------------------------------------------|--------------------------------------------------------| 
 

GUITAR 1: 

 
E|-----------------------------|-------------------------------------| 
B|-----------------------------|-------------------------------------| 
G|--6--6---7--7---8--8---9--9--|--10--10---12--12---13--13---13--13--| 
D|-----------------------------|-------------------------------------| 
A|--4--4---5--5---6--6---7--7--|--8---8----10--10---11--11---11--11--| 
E|-----------------------------|-------------------------------------| 
 

GUITAR 2: 

 
E|----------------------|----------------------------------|------------------| 
B|----------------------|----------------------------------|------------------| 
G|----------------------|------10--10--10------------------|--------------10--| 
D|--10--10------13--10--|--10--------------13--13--13--10--|--13--10--13------| 
A|----------13----------|----------------------------------|------------------| 
E|----------------------|----------------------------------|------------------| 
 


 
Pre-Chorus/Pre-Estribillo:: 
 

GUITAR 1: 

 
E|------------------|---------------------------------------------------| 
B|------------------|---9--9--9---10--10--10---12--12--12---10--10--10--| 
G|--6--6------8--8--|---------------------------------------------------| 
D|--6--6------8--8--|---6--6--6---8---8---8----10--10--10---8---8---8---| 
A|--4--4------6--6--|---------------------------------------------------| 
E|------------------|---------------------------------------------------| 
 

GUITAR 2: 

 
E|--------------------------|----------------------------------------------|----------| 
B|--------------------------|----------------------------------------------|----------| 
G|--13--10------10------10--|--10--13--10------------------10--10------10--|----------| 
D|------------------13------|--------------13--13--10--13----------13------|--13--10--| 
A|--------------------------|----------------------------------------------|----------| 
E|--------------------------|----------------------------------------------|----------| 
 

GUITAR 1: 

 
E|------------------|---------------------------------------------------| 
B|------------------|---9--9--9---10--10--10---12--12--12---10--10--10--| 
G|--6--6------8--8--|---------------------------------------------------| 
D|--6--6------8--8--|---6--6--6---8---8---8----10--10--10---8---8---8---| 
A|--4--4------6--6--|---------------------------------------------------| 
E|------------------|---------------------------------------------------| 
 

GUITAR 2: 

 
E|----------------------|--------------------------------------| 
B|----------------------|--------------12--11------------------| 
G|----------10------10--|--13--13--10----------13--10----------| 
D|--------------13------|------------------------------13--10--| 
A|--13------------------|--------------------------------------| 
E|----------------------|--------------------------------------| 
 

GUITAR 1: 

 
E|---------------------------------| 
B|--9--9--9---9---9--9---9--9---9--| 
G|--8--8--8---8---8--8---8--8---8--| 
D|--7--7--7---7---7--7---7--7---7--| 
A|--8--8--8---8---8--8---8--8---8--| 
E|---------------------------------| 
 

GUITAR 2: 

 
E|------------------------------------------| 
B|------------------------------------------| 
G|--------------------------------------10--| 
D|--13--13--13---13---13--13---13--13-------| 
A|------------------------------------------| 
E|------------------------------------------| 
 


Chorus/Estribillo: 

GUITAR 1: 

 
E|---------------------------------------| 
B|---------------------------------------| 
G|--6------8------10------13--12--10--8--| 
D|--6------8------10---------------------| 
A|--4------6------8-------11--10--8---6--| 
E|---------------------------------------| 
 

GUITAR 2: 

 
E|----------------------------------------------------------------| 
B|------13----------------------------------------------------13--| 
G|--10--------10--10--------------10--10--12--13--12--10----------| 
D|--------------------13------13--------------------------13------| 
A|----------------------------------------------------------------| 
E|----------------------------------------------------------------| 
 

GUITAR 1: 

 
E|-----------------------------------| 
B|-----------------------------------| 
G|--6------8------10---12---13---17--| 
D|--6------8-------------------------| 
A|--4------6------8----10---11---15--| 
E|-----------------------------------| 
 

GUITAR 2: 

 
E|------------------------------------------------------------------------------------| 
B|----------13------------------------------------------------------13--13----13------| 
G|------10--------10----10----------10--10------10--10--13--13--13--------------------| 
D|--13----------------------13--13------------------------------------------------13--| 
A|------------------------------------------------------------------------------------| 
E|------------------------------------------------------------------------------------| 
 

GUITAR 1: 

 
E|---------------------------------------| 
B|---------------------------------------| 
G|--6------8------10------13--12--10--8--| 
D|--6------8------10---------------------| 
A|--4------6------8-------11--10--8---6--| 
E|---------------------------------------| 
 

GUITAR 2: 

 
E|----------------------------------------------------------------| 
B|------13----------------------------------------------------13--| 
G|--10--------10--10--------------10--10--12--13--12--10----------| 
D|--------------------13------13--------------------------13------| 
A|----------------------------------------------------------------| 
E|----------------------------------------------------------------| 
 

GUITAR 1: 

 
E|-----------------------------------|------------| 
B|-----------------------------------|------------| 
G|--6------8------10---13---17---20--|--6------8--| 
D|--6------8-------------------------|--6------8--| 
A|--4------6------8----11---15-------|--4------6--| 
E|-----------------------------------|------------| 
 

GUITAR 2: 

 
E|--------------------------------------------------------------------------11--|--------------------------| 
B|----------13------------------------------------------------13--13----13------|--------------------------| 
G|------10--------10----10------------10--10--10--13--13--13--------------------|----------------------10--| 
D|--13----------------------13----13--------------------------------------------|--13--13--13--10--13------| 
A|------------------------------------------------------------------------------|--------------------------| 
E|------------------------------------------------------------------------------|--------------------------| 
 


Solo: 

 
E|----------------------------------------------16--18-b--18-b--18-b--18-b-r--18--16------16--------------------------------| 
B|----------------------------13--16--18----18----------------------------------------18------------------------------------| 
G|--------------13--------13--------------------------------------------------------------------16--15--13--15--13------13--| 
D|------13--15--------15--------------------------------------------------------------------------------------------15------| 
A|--15----------------------------------------------------------------------------------------------------------------------| 
E|--------------------------------------------------------------------------------------------------------------------------| 
 


Bridge/Puente: 

GUITAR 2: 

 
E|-----------------------------------------------|-------------------------------------------------------| 
B|-----------------------------------------------|-------------------------------------------12--11------| 
G|-----------------------------------------------|---------------------------------------------------13--| 
D|--10--10--12--10--10---12--10--10--12--13--12--|--10--10--12--10--10---12--10--10--12--13--------------| 
A|-----------------------------------------------|-------------------------------------------------------| 
E|-----------------------------------------------|-------------------------------------------------------| 
 

GUITAR 1: 

 
E|--------------------|-----------------------------------------------------|-----------------------------------------------------| 
B|--9---9---9--9---9--|-----------------------------------------------------|-----------------------------------------------------| 
G|--8---8---8--8---8--|-----------------------------------------------------|-----------------------------------------------------| 
D|--6---6---6--6---6--|--3--x--x--x---x--x--x--x---x--x--x--x---x--x--x--x--|--6--x--x--x---x--x--x--x---x--x--x--x---x--x--x--x--| 
A|--------------------|--3--x--x--x---x--x--x--x---x--x--x--x---x--x--x--x--|--6--x--x--x---x--x--x--x---x--x--x--x---x--x--x--x--| 
E|--------------------|--1--x--x--x---x--x--x--x---x--x--x--x---x--x--x--x--|--4--x--x--x---x--x--x--x---x--x--x--x---x--x--x--x--| 
 

GUITAR 2: 

 
E|------------------------------------------|---------------------------------------------------| 
B|------------------------------------------|---------------------------------------------------| 
G|------------------------------------------|---------------------------------------------------| 
D|--10---12---10---12---10--10--12--13--12--|--10--10--12--10--10--10--12--10---10--12--13--12--| 
A|------------------------------------------|---------------------------------------------------| 
E|------------------------------------------|---------------------------------------------------| 
 

GUITAR 1: 

 
E|-----------------------------------------------------|-----------------------------------------------------|------------------| 
B|-----------------------------------------------------|-----------------------------------------------------|--13--15--16--17--| 
G|--6--x--x--x---x--x--x--x---x--x--x--x---x--x--x--x--|--8--x--x--x---x--x--x--x---x--x--x--x---x--x--x--x--|------------------| 
D|--6--x--x--x---x--x--x--x---x--x--x--x---x--x--x--x--|--8--x--x--x---x--x--x--x---x--x--x--x---x--x--x--x--|------------------| 
A|--4--x--x--x---x--x--x--x---x--x--x--x---x--x--x--x--|--6--x--x--x---x--x--x--x---x--x--x--x---x--x--x--x--|------------------| 
E|-----------------------------------------------------|-----------------------------------------------------|------------------| 
 

GUITAR 2: 

 
E|----------------------------------------------|----------------------------------------| 
B|----------------------------------------------|------11--11----------------------------| 
G|--10--10--12--10--12--10--10--10--12--13--12--|--10------------10------10--13--10--13--| 
D|----------------------------------------------|--------------------13------------------| 
A|----------------------------------------------|----------------------------------------| 
E|----------------------------------------------|----------------------------------------| 
 

GUITAR 1: 

 
E|-----------------------------| 
B|--9--9--9---9---9--9---9--9--| 
G|--8--8--8---8---8--8---8--8--| 
D|--7--7--7---7---7--7---7--7--| 
A|--8--8--8---8---8--8---8--8--| 
E|-----------------------------| 
 

GUITAR 2: 

 
E|---------------------------------------------------| 
B|---------------------------------------------------| 
G|------10--10--10--10---------------10--10--10--10--| 
D|--13------------------13---13--13------------------| 
A|---------------------------------------------------| 
E|---------------------------------------------------| 
 


Chorus/Estribillo: 

GUITAR 1: 

 
E|---------------------------------------| 
B|---------------------------------------| 
G|--6------8------10------13--12--10--8--| 
D|--6------8------10---------------------| 
A|--4------6------8-------11--10--8---6--| 
E|---------------------------------------| 
 

GUITAR 2: 

 
E|----------------------------------------------------------------| 
B|------13----------------------------------------------------13--| 
G|--10--------10--10--------------10--10--12--13--12--10----------| 
D|--------------------13------13--------------------------13------| 
A|----------------------------------------------------------------| 
E|----------------------------------------------------------------| 
 

GUITAR 1: 

 
E|-----------------------------------| 
B|-----------------------------------| 
G|--6------8------10---12---13---17--| 
D|--6------8-------------------------| 
A|--4------6------8----10---11---15--| 
E|-----------------------------------| 
 

GUITAR 2: 

 
E|------------------------------------------------------------------------------------| 
B|----------13------------------------------------------------------13--13----13------| 
G|------10--------10----10----------10--10------10--10--13--13--13--------------------| 
D|--13----------------------13--13------------------------------------------------13--| 
A|------------------------------------------------------------------------------------| 
E|------------------------------------------------------------------------------------| 
 

GUITAR 1: 

 
E|---------------------------------------| 
B|---------------------------------------| 
G|--6------8------10------13--12--10--8--| 
D|--6------8------10---------------------| 
A|--4------6------8-------11--10--8---6--| 
E|---------------------------------------| 
 

GUITAR 2: 

 
E|---------------------------------------------------------------------------| 
B|------13---------------------------------------------------------------13--| 
G|--10--------10---10--10--------------10--10----10--12--13--12--10----------| 
D|-------------------------13--13--13--------------------------------13------| 
A|---------------------------------------------------------------------------| 
E|---------------------------------------------------------------------------| 
 

GUITAR 1: 

 
E|-----------------------------------|------------| 
B|-----------------------------------|------------| 
G|--6------8------10---13---17---20--|--6------8--| 
D|--6------8-------------------------|--6------8--| 
A|--4------6------8----11---15-------|--4------6--| 
E|-----------------------------------|------------| 
 

GUITAR 2: 

 
E|-------------------------------------------------------------------------------------------11--| 
B|----------13-----------------------------------------------------------------13--13----13------| 
G|------10--------10---10--10----------10--10--------10--10--10----13--13--13--------------------| 
D|--13-------------------------13--13------------13----------------------------------------------| 
A|-----------------------------------------------------------------------------------------------| 
E|-----------------------------------------------------------------------------------------------| 
 


Outro: 

GUITAR 2: 

 
E|--------------------------------------------------| 
B|--------------11------11--12--11------------------| 
G|------10--13------13--------------13--10------10--| 
D|--13--------------------------------------13------| 
A|--------------------------------------------------| 
E|--------------------------------------------------| 
 

GUITAR 1: 

 
E|-------------------------------------|-------------------------------| 
B|-------------------------------------|-------------------------------| 
G|-------------------------------------|-------------------------------| 
D|--3--3--3---6----3---3--3----6----8--|--3--3---6----3---3--3---6--8--| 
A|--3--3--3---6----3---3--3----6----8--|--3--3---6----3---3--3---6--8--| 
E|--1--1--1---4----1---1--1----4----6--|--1--1---4----1---1--1---4--6--| 
 

GUITAR 2: 

 
E|--22-b-|-------------| 
B|-------|---------11--| 
G|-------|--10---------| 
D|-------|------8------| 
A|-------|-------------| 
E|-------|-------------| 
 

GUITAR 1: 

 
E|-----------------------------------| 
B|-----------------------------------| 
G|-----------------------------------| 
D|--3--3--3---6----3---3--3---6---8--| 
A|--3--3--3---6----3---3--3---6---8--| 
E|--1--1--1---4----1---1--1---4---6--| 
 

GUITAR 2: 

E|--22-b-| 
B|-------| 
G|-------| 
D|-------| 
A|-------| 
E|-------| 

GUITAR 1: 

 
E|-------------------------------|------------------------------------------------|------16--| 
B|------9--11--11-b-r--9------9--|------------------------------------------------|--9-------| 
G|--10--------------------10-----|--10--8-----------------------------------------|--8-------| 
D|-------------------------------|---------10--8------8-h-10-p-8-----8------------|--7-------| 
A|-------------------------------|----------------11--------------8-----8--11--8--|--8-------| 
E|-------------------------------|------------------------------------------------|----------| 
 
		  

See also:

tabs Deep Purple - Sometimes a Feel Like Screaming tabs Deep Purple - Mistreated tabs Deep Purple - Smoke on the Water (ver. 2) tabs Ira! - Vitrine Viva tabs Doa - Sexyest Girl tabs Deep Purple - Ted The Mechanic
e-chords

Other versions:

tabs Miku Hatsune - World Is Mine
auto scroll beats size up size down change color hide chords drawings
tab show chords e-chords YouTube Clip e-chords hide all tabs e-chords go to top tab

share with facebook