Miguel Mateos

Atado A Un Sentimiento

Miguel Mateos

tabs Expert expert

by  FAMAYA_VALENCIA

save to print version add songbook text version e-mail correct tuner
chordsukulelecavacokeyboardtabbassdrumsharmonicaflute Guitar Pro
close

there isn't a video lesson for this song

chords

Atado A Un Sentimiento

	  		 Intro: 

        Te quiero,       te extraño 
 E|---2------------|---2------------| 
 B|---3------------|---3------------| 
 G|---2------------|---3------------| 
 D|---0------------|---0------------| 
 A|----------------|----------------| 
 E|----------------|----------------| 

        nada es   igual al  ayer 
 E|---3----------|--0-----|---2---3--2------------| 
 B|---3----------|--2-----|---3---------3---------| 
 G|---4----------|--2-----|---2-------------2^3~--| 
 D|---5----------|--2-----|-----------------------| 
 A|---5----------|--------|-----------------------| 
 E|--------------|--------|-----------------------| 

    oh oh oh nada, oh no. 
 E|-----------3----|---5----| 
 B|-----------3----|---5----| 
 G|-----------4----|---6----| 
 D|-----------5----|---7----| 
 A|-----------5----|---7----| 
 E|----------------|--------| 

     ( Sigue este rasgueo ) 
          D              Dm5               D               Dm5 
 E|--2--2--2-2-2-2-|-2--2--2-2-2-2-|--2--2--2-2-2-2-|--2--2--2-2-2-2-| 
 B|--3--3--3-3-3-3-|-3--3--3-3-3-3-|--3--3--3-3-3-3-|--3--3--3-3-3-3-| 
 G|--2--2--2-2-2-2-|-3--3--3-3-3-3-|--2--2--2-2-2-2-|--3--3--3-3-3-3-| 
 D|--0--0--0-0-0-0-|-0--0--0-0-0-0-|--0--0--0-0-0-0-|--0--0--0-0-0-0-| 
 A|----------------|---------------|----------------|----------------| 
 E|----------------|---------------|----------------|----------------| 

          D              Dm5               D               Dm5 
 E|--2--2--2-2-2-2-|-2--2--2-2-2-2-|--2--2--2-2-2-2-|--2--2--2-2-2-2-| 
 B|--3--3--3-3-3-3-|-3--3--3-3-3-3-|--3--3--3-3-3-3-|--3--3--3-3-3-3-| 
 G|--2--2--2-2-2-2-|-3--3--3-3-3-3-|--2--2--2-2-2-2-|--3--3--3-3-3-3-| 
 D|--0--0--0-0-0-0-|-0--0--0-0-0-0-|--0--0--0-0-0-0-|--0--0--0-0-0-0-| 
 A|----------------|---------------|----------------|----------------| 
 E|----------------|---------------|----------------|----------------| 




 D          Dm5 
  Te espero, te deseo 
 G         A               D   Dm5 
  como una roca espera al mar 
         G        A 
  te necesito oh, no. 

 D       Dm5 
  Y vivo atado 
 G           A        D    Dm5 
  a un sentimiento carnal 
              G       A 
  atado a tu luna, oh no. 

  G           A 
  Yo puedo tocar el fuego 
   Bm             F#m 
  puedo hasta quemarme entero, 
       G 
  pero no me pidas 
                                            D 
       A            D   E|--3--2----------|--2---3---2-----------| 
  que te deje de amar.  B|--------3-------|--3----------3--------| 
                        G|-----------2^3~-|--2-------------2^3~--| 
                        D|----------------|--0-------------------| 
                        A|----------------|----------------------| 
                        E|----------------|----------------------| 


 D         Dm5 
  Te llevo  clavada 
 G            A 
  como una espina 
             D    Dm5 
  en mi costado 
               G         A 
  entrando despacio, oh oh. 

 D         Dm5 
  Y quiero,  que sepas 
 G                   A 
  que esto esta planeado 
        D    Dm5 
  por amor 
               G 
  un poco de amor, 
        A 
  nada mas. 

  G                       A 
  Puedo arrastrarme a tu puerta 
 Bm                 F#m 
  puedo hacer que estes despierta 


   G              A               D  E|--3--2----------| 
  las mil y una noches porque estoy  B|--------3-------| 
                                     G|-----------2^3~-| 
                                     D|----------------| 
                                     A|----------------| 
                                     E|----------------| 


      atado a un sentimiento 
                           D 
    E|---------------------2---|--3--2--------------| 
    B|---------------------3---|---------3----------| 
    G|---------------------2---|-------------2^3~---| 
    D|---------------------0---|--------------------| 
    A|-------------------------|--------------------| 
    E|-------------------------|--------------------| 




                 solo  estoy, 
                           D 
    E|---------------------2---|--3--2--------------| 
    B|---------------------3---|---------3----------| 
    G|---------------------2---|-------------2^3~---| 
    D|---------------------0---|--------------------| 
    A|-------------------------|--------------------| 
    E|-------------------------|--------------------| 


      atado a un sentimiento 
                           D 
    E|---------------------2---|--3--2--------------| 
    B|---------------------3---|---------3----------| 
    G|---------------------2---|-------------2^3~---| 
    D|---------------------0---|--------------------| 
    A|-------------------------|--------------------| 
    E|-------------------------|--------------------| 


 E|-----------------------------------------------------------------| 
 B|---8/10---8---7---8----7-------7-8----8/10-8--7--8---7---8^7-----| 
 G|---------------------------9~--------------------------------9~--| 
 D|-----------------------------------------------------------------| 
 A|-----------------------------------------------------------------| 
 E|-----------------------------------------------------------------| 


 E|---------------------------------------------------------| 
 B|---8/10-----8----7----8----7----8-----7^8^7--------------| 
 G|---------------------------------------------9~-----7~---| 
 D|---------------------------------------------------------| 
 A|---------------------------------------------------------| 
 E|---------------------------------------------------------| 

 D       Dm5    G           A 
  Y vivo   atado a un sentimiento, 
 D       Dm5    G           A 
  y vivo   atado a un sentimiento, 
 D     Dm5    G           A 
  vivo   atado a un sentimiento 
 D       Dm5    G           A          D 
  Y vivo   atado a un sentimiento, no no. 
		  

Full key step upFull key step up
Half key step upHalf key step up
Half key step downHalf key step down
Full key step downFull key step down
auto scroll beats size up size down change color hide chords drawings
tab show chords e-chords YouTube Clip e-chords hide all tabs e-chords go to top tab

share