Mick Gordon

The Only Thing They Fear Is You Tab

Mick Gordon

Difficulty: nolevelnolevel

by adalgomes

tuner correct add songbook print version text version save to e-mail
chordsukulelecavacokeyboardtabbassdrumsharmonicsflute Guitar Pro
close

there isn't a video lesson for this song

request
chords

The Only Thing They Fear Is You

  		

Intros x 2 with those synths in between each 

d|-----| 
A|-----| 
F|-----| 
C|-----| 
G|-----| 
C|-----| 
D|0-0--| 

Riff 1 

The first part, palm mute the low D string  

d|---------------------------------------------------------------------------| 
A|---------------------------------------------------------------------------| 
F|---------------------------------------------------------------------------| 
C|---------------------------------------------------------------------------| 
G|---------------------------------------------------------------------------| 
C|3-----------2-4-3--------4---3-----------2-4-3----1-3-2--------------------| 
D|--1-1-1-11---------1-1-2---5----1-1-1-11-------1-1------0-0-0--------------| 

d|---------------------------------------------------------------------------| 
A|---------------------------------------------------------------------------| 
F|---------------------------------------------------------------------------| 
C|---------------------------------------------------------------------------| 
G|---------------------------------------------------------------------------| 
C|3-----------2-4-3--------4---3-----------2-4-3----1-3-2--------------------| 
D|--1-1-1-11---------1-1-2---5----1-1-1-11-------1-1------0-0-0--------------| 

Here let everything ring out like an old school nu-metal riff 

d|---------------------------------------------------------------------------| 
A|---------------------------------------------------------------------------| 
F|---------------------------------------------------------------------------| 
C|---------------------------------------------------------------------------| 
G|---------------------------------------------------------------------------| 
C|3-----------2-4-3--------4---3-----------2-4-3----1-3-2--------------------| 
D|--1-1-1-11---------1-1-2---5---1-1-1-11-------1-1------0-0-0---------------| 

d|---------------------------------------------------------------------------| 
A|---------------------------------------------------------------------------| 
F|---------------------------------------------------------------------------| 
C|---------------------------------------------------------------------------| 
G|---------------------------------------------------------------------------| 
C|3-----------2-4-3--------4---3-----------2-4-3----1-3-2-----2--------------| 
D|--1-1-1-11---------1-1-2---5---1-1-1-11-------1-1------0-0---0-0-----------| 

d|-----| x 2 
A|-----| 
F|-----| 
C|-----| 
G|-----| 
C|3----| 
D|--1--| 

d|---------------------------------------------------------------------------| 
A|---------------------------------------------------------------------------| 
F|---------------------------------------------------------------------------| 
C|---------------------------------------------------------------------------| 
G|---------------------------------------------------------------------------| 
C|3-----------2-4-3--------4---3-----------2-4-3----1-3-2--------------------| 
D|--1-1-1-11---------1-1-2---5----1-1-1-11-------1-1------0-0-0--------------| 

d|---------------------------------------------------------------------------| 
A|---------------------------------------------------------------------------| 
F|---------------------------------------------------------------------------| 
C|---------------------------------------------------------------------------| 
G|---------------------------------------------------------------------------| 
C|3-----------2-4-3--------4---3-----------2-4-3-----2-4-3-------------------| 
D|--1-1-1-11---------1-1-2---5----1-1-1-11-------1-1------1-1-1--------------| 

Riff 2 x 4 

The breakdown! Play this section very percussive like a djent song. 

d|---------------------------------------------------------------------------| 
A|---------------------------------------------------------------------------| 
F|---------------------------------------------------------------------------| 
C|---------------------------------------------------------------------------| 
G|---------------------------------------------------------------------------| 
C|----------3--------------3-------------------------------------------------| 
D|4-3-3-2-1---1--4-3--3-2----1-----------------------------------------------| 

Riff 3 x 4 

d|---------------------------------------------------------------------------| 
A|---------------------------------------------------------------------------| 
F|---------------------------------------------------------------------------| 
C|---------------------------------------------------------------------------| 
G|---------------------------------------------------------------------------| 
C|----3---3-------2-----------3---3-------4----------------------------------| 
D|1-1---1---1-0-0---0-1b--1-1---1---1-2-2---2-5------------------------------| 



************************************ 

| b  Bend 

************************************ 
	  

Full key step upFull key step up
Half key step upHalf key step up
Half key step downHalf key step down
Full key step downFull key step down
Search Paypal
auto scroll beats size up size down change color hide chords drawings
tab show chords e-chords YouTube Clip e-chords hide all tabs e-chords go to top tab

share with facebook