Michael Jackson

Billie Jean ( ver. 2 )

Michael Jackson

tabs Beginner beginner

by  VEGETTH87

save to print version add songbook text version e-mail correct tuner
chordsukulelecavacokeyboardtabbassdrumsharmonicaflute Guitar Pro
close

there isn't a video lesson for this song

chords

Billie Jean ( ver. 2 )

	  		G ------------------| 
D -4---2-4--2-------| 
A ---4--------4-2-4-| 
E ------------------| 
 
G -4---2-4--2-------| 
D ---4--------4-2-4-| 
A ------------------| 
E ------------------| 
 
Bridge: 
 
G ------------------|------------------| 
D ------------------|-4---4---4---4----|   3 times 
A -5---5---5---5----|------------------| 
E ------------------|------------------| 
 
G ------------------|------------------| 
D ------------------|------------------| 
A -5---5---5---5----|-4---4---4---4----| 
E ------------------|------------------| 

		  

See also:

tabs Michael Jackson - Billie Jean (Fingerstyle) tabs Ashlee Simpson - Pieces Of Me tabs Gavin Degraw - I Don't Want To Be tabs Michael Jackson - Beat It, Black Or White E Ben (riffs) tabs Camp Rock - This Is Me tabs Gavin Degraw - I Don't wanna Be
e-chords

Other versions:

tabs Michael Jackson - BILLIE JEAN tabs Sungha Jung - Billie Jean tabs Nonpoint - Billie Jean tabs Michael Jackson - Billie Jean ( ver. 2 ) tabs The Civil Wars - Billie Jean (cover) tabs Michael Jackson - Billie Jean (Fingerstyle)
auto scroll beats size up size down change color hide chords drawings
tab show chords e-chords YouTube Clip e-chords hide all tabs e-chords go to top tab

share