Metallica

Whiskey In The Jar (ver. 2) Tab

Metallica

Difficulty: BeginnerBeginner

by Lapel

tuner correct add songbook print version text version save to e-mail
chordsukulelecavacokeyboardtabbassdrumsharmonicsflute Guitar Pro
close

there isn't a video lesson for this song

chords

Whiskey In The Jar (ver. 2)

  		Introdução:  F5  E5  ( D5   F5 )  
  
E|--------------------------------------------------  
B|--------------------------------------------------  
G|----------10-10-10---------------------10^~--     3 X  
D|-10--10--------------12--12--10--12---------        
A|-------------------------------------------------  
E|--------------------------------------------------  
  
E|-------------------------------------------------  
B|-------------------------------------------------  
G|-------------------------------------------------  
D|-10--10--12-12-12--10--12-10-12^--------  
A|-------------------------------------------8~~--  
E|--------------------------------------------------  
  
F5                                      D5  
As I was goin' over the Cork and Kerry mountains   
  
       A#5                                     F5  
I saw Captain Farrell and his money he was countin'   
  
F5                                               D5  
I first produced my pistol and then produced my rapier   
  
     A#5                                        F5  
I said stand and deliver or the devil he may take ya   
  
riff 1: (D5 F5)  
  
  
E|--------------------------------------------------  
B|--------------------------------------------------  
G|----------10-10-10---------------------10^~--    2 X  
D|-10--10--------------12--12--10--12---------        
A|-------------------------------------------------  
E|--------------------------------------------------  
  
E|-----------------------------------------------------  
B|-----------------------------------------------------  
G|----------10-10--13^--13--13^-13--13^--12~--  
D|-10--10---------------------------------------------  
A|-----------------------------------------------------  
E|-----------------------------------------------------  
  
E|-------------------------------------------------  
B|-------------------------------------------------  
G|-------------------------------------------------  
D|-10--10--12-12-12--10--12-10-12^--------  
A|-------------------------------------------8~~--  
E|--------------------------------------------------  
  
  
  
  
  
 F5                                 D5                                       
I took all of his money and it was a pretty penny   
  
 A#5                              F5  
I took all of his money and I brought it home to Molly   
  
F5                                               D5   
She swore that she'd love me, never would she leave me   
  
A#5                                            F5  
But the devil take that woman for you know she treat me easy   
  
  
  
  C5  
Musha ring dum a doo dum a da   
  
A#5  
Whack for my daddy-o   
  
A#5  
Whack for my daddy-o   
  
              F5  
There's whiskey in the jar-o   
  
riff 2:  (D5 F5)  
  
E|--------------------------------------------------  
B|--------------------------------------------------  
G|----------10-10-10---------------------10^~--    2 X  
D|-10--10--------------12--12--10--12---------        
A|-------------------------------------------------  
E|--------------------------------------------------  
  
E|----------------------------------------------------  
B|----------------------------------------------------  
G|---------10-10--13^--13--13^-13--10/1310~-  
D|10--10---------------------------------------------  
A|----------------------------------------------------  
E|----------------------------------------------------  
  
E|-------------------------------------------------------  
B|-------------------------------------------------------  
G|------------------------------------------------------  
D|10--10--12-12-12--10--12-10-10/1210--------  
A|------------------------------------------------8~~--  
E|------------------------------------------------------  
  
  
  
RIFF 3:    Esse riff é tocado pelo solista enquanto o guitarrista base toca as  
 notas normais e o vocalista canta a música normalmente, ele nao aparece muito,  
 mas se tu prestar atenção ele é tocado.  
  
  
Being drunk and weary.......  
  
  
    F5                                     D5                                     A#5                      F5  
E|-----------------------------------------------------------------------------------------------------------  
B|-----------------------------------------------------------------------------------------------------------  
G|-5--5--5--5--5/7-5----------7--7--7--7--7/9--7----------7--9--9/10--9--7--5~------7--5--7--5--7--5--7--5~--  
D|-----------------------7~----------------------------8~----------------------------------------------------  
A|-----------------------------------------------------------------------------------------------------------  
E|-----------------------------------------------------------------------------------------------------------  
  
  
For about six or maybe.....  
  
    F5                                     D5                                     A#5                 F5  
E|-----------------------------------------------------------------------------------------------------  
B|--------------------------------------------------------------------------------------------------6~-  
G|-5--5--5--5--5/7-5----------7--7--7--7--7/9-----------7--9--9/10--9--7--5~--------5/7-------  
D|-----------------------7~--------------------------8~------------------------------------------------  
A|-----------------------------------------------------------------------------------------------------  
E|-----------------------------------------------------------------------------------------------------  
  
  
  
  
F5                                    D5  
Being drunk and weary I went to Molly's chamber   
  
A#5                                  F5  
Takin' my money with me and I never knew the danger   
  
F5                                                   D5  
For about six or maybe seven in walked Captain Farrell   
  
A#5                                                 F5  
I jumped up, fired off my pistols and I shot him with both barrels   
  
  
C5  
Musha ring dum a doo dum a da   
  
A#5  
Whack for my daddy-o   
  
A#5  
Whack for my daddy-o   
  
              F5  
There's whiskey in the jar-o   
  
Solo: O solo esta correto mas em algumas partes você terá que almentar bastante a  
      velocidade, e em outras voce deverá diminuir!  
  
As notas da base estão em cima da tablatura do solo.  
  
     F5  
E|--------------------------------------------------  
B|--------------------------------------------------  
G|----------10-10-10---------------------10^~--  
D|-10--10--------------12--12--10--12---------        
A|-------------------------------------------------  
E|--------------------------------------------------  
  
  
  F5                                                                               D5  
E|--5--6--8--6--5/65------5--------------------5--6--8----5--8--8/10--10--8--10--10/13--10--8--10--8--10-  
B|------------------------8------8--6--5--6--8-----------------------------------------------------------  
G|-------------------------------------------------------------------------------------------------------  
D|-------------------------------------------------------------------------------------------------------  
A|-------------------------------------------------------------------------------------------------------  
E|-------------------------------------------------------------------------------------------------------  
  
   A#5                                                              F5  
E|-5--8--6--5----------------5-5--------------------------------  
B|---------------8--6--5-----------8--6--5~---------------------  
G|-------------------------7-------------------7--5--7----------  
D|--------------------------------------------------------7~~~~-  
A|--------------------------------------------------------------  
E|--------------------------------------------------------------  
  
    F5                                                                                D5  
E|--5--6--8--6--5/65------5--------------------5--6--8----5--8--8/10--10--8--10--10/13--10--8--10--8--10--  
B|------------------------8------8--6--5--6--8------------------------------------------------------------  
G|--------------------------------------------------------------------------------------------------------  
D|--------------------------------------------------------------------------------------------------------  
A|--------------------------------------------------------------------------------------------------------  
E|--------------------------------------------------------------------------------------------------------  
  
   A#5                                                                                                 F5  
E|-5--8--6--5----------------5-5--------------------5-6-8-8-5-6-8-8-5-6-8-8-8/10~-  
B|---------------8--6--5-----------5-6-8-8-5-6-8-8--------------------------------  
G|-------------------------7------------------------------------------------------  
D|--------------------------------------------------------------------------------  
A|--------------------------------------------------------------------------------  
E|--------------------------------------------------------------------------------  
  
  
                              D5                                                     A#5                        F5  
E|--1--1/3--1--0--1-----------------------------------------------------------------------------------------------  
B|--1--1/3--1--0--1------6/8^--8--8--8--6/86~--6-----------------------------------5/6--5--5/6--5--6/8-6~---5--6~-  
G|----------------------7----------------------------7--5------5-----5/7--5--7/9--7~------------------------------  
D|-----------------------------------------------------------8------8---------------------------------------------  
A|----------------------------------------------------------------------------------------------------------------  
E|----------------------------------------------------------------------------------------------------------------  
  
                
E|-----------------------------------------------------  
B|--5--6--8--6~~---18-18-18-------------18^----  
G|--------------------------------19-19-19---------  
D|-----------------------------------------------------  
A|----------------------------------------------------  
E|----------------------------------------------------  
  
riff 4: (D5  F5)  
  
  
E|--------------------------------------------------  
B|--------------------------------------------------  
G|----------10-10-10---------------------10^~--    2 X  
D|-10--10--------------12--12--10--12---------        
A|-------------------------------------------------  
E|--------------------------------------------------  
  
E|-----------------------------------------------------  
B|-----------------------------------------------------  
G|----------10-10--13^--13--13^-13--10/1310~-  
D|-10--10---------------------------------------------  
A|-----------------------------------------------------  
E|-----------------------------------------------------  
  
E|--------------------------------------------------------  
B|--------------------------------------------------------  
G|-------------------------------------------------------  
D|-10--10--12-12-12--10--12-10-10/1210--------  
A|-------------------------------------------------8~~--  
E|-------------------------------------------------------  
  
  
F5                                                   D5  
Now some men like the fishin' and some men like the fowlin'   
  
A#5                                       F5  
And some men like ta hear a cannon ball a roarin'   
  
F5                         D5        
Me I like sleepin' specially in my Molly's chamber   
  
A#5                               F5  
But here I am in prison, here I am with a ball and chain yeah  
  
  
C5  
Musha ring dum a doo dum a da   
  
A#5  
Whack for my daddy-o   
  
A#5  
Whack for my daddy-o   
  
              F5  
There's whiskey in the jar-o  
  
riff 5: (D5 F5)  
  
E|--------------------------------------------------  
B|--------------------------------------------------  
G|----------10-10-10---------------------10^~--     3 X  
D|-10--10--------------12--12--10--12---------        
A|-------------------------------------------------  
E|--------------------------------------------------  
  
E|-------------------------------------------------  
B|-------------------------------------------------  
G|-------------------------------------------------  
D|-10--10--12-12-12--10--12-10-12^--------  
A|-------------------------------------------8~~--  
E|--------------------------------------------------  
  
  
F5  
Musha ring dum a doo dum a da   4X  
  
F5  
Yeah.........  
  
Fim!!!  
  
É Nóis  
[email protected]  

	  

Full key step upFull key step up
Half key step upHalf key step up
Half key step downHalf key step down
Full key step downFull key step down
auto scroll beats size up size down change color hide chords drawings
tab show chords e-chords YouTube Clip e-chords hide all tabs e-chords go to top tab

share with facebook

Search Paypal