Metallica

home > Metallica

Wherever I May Roam (completo) Tab

Metallica

Difficulty: ExpertExpert

by d%40nilo+89

tuner correct add songbook print version text version save to e-mail
chordsukulelecavacokeyboardtabbassdrumsharmonicsflute Guitar Pro
chords

Wherever I May Roam (completo)

	                   Wherever I May Roam 
 
 
Introdução 
|------------------------------------------------------------------| 
|------5-5/6-5---------8-8/10-6----5-----5-5/6-5---(5)-------------| 
|------------------------------------------------------------------| 
|------2-2/3-2---------5-5/7--3----2-----2-2/3-2---(2)-------------| 
|------------------------------------------------------------------| 
|0---------------0---------------0---------------------------------| 
 
|------------------------------------------------------------------| 
|------5-5/6-5---------8-8/10-10/6---5----5-5/6-5------------------| 
|------------------------------------------------------------------| 
|------2-2/3-2---------5-5/7---7/3---2----2-2/3-2------------------| 
|------------------------------------------------------------------| 
|0---------------0-------------------------------------------------| 
 
|------------------------------------------------------------------| 
|------5-5/6-5---------8-8/10-10/6---5-----------------------------| 
|------------------------------------------------------------------| 
|------2-2/3-2---------5-5/7---7/3---2-----------------------------| 
|------------------------------------------------------------------| 
|0---------------0-------------------0-----------------------5s20\-| 
 
|-----------------------------------------------------------------------------------------------| 
|-----------------------------------------------------------------------------------------------|  
|-----------------------------------------------------------------------------------------------| 
|--------------------5-5/7-------------------------------------------5-5/7----------------------| 
|-----7-7h8-7vvv------------8----7---7-7h8-7vvv--------7-7h8-7vvv------------8-----7--7-7h8-7vvv| 
|0-------------------------------0-----------------0-------------------------------0------------| 
 
|------------------------| 
|------------------------| 
|------------------------| 
|------------------------| 
|(7)-----7---8---9---10\-| 
|--------5---6---7---8-\-| 
 
Pre-Verse 
|-----------------------------------------------------------------| 
|-----------------------------------------------------------------|  
|-----------------------------------------------------------------| 
|----------------------5-5s7-----9--------------------------------| 
|2-----7-7h8-7vv--7----------8---7-----7-7h8-7vv--7---8---9---10--| 
|0---0------------0--0-----------0---0------------5---6---7---8---| 
 
|-----------------------------------------------------------------| 
|-----------------------------------------------------------------|  
|-----------------------------------------------------------------| 
|----------------------5-5s7-----9--------------------------------| 
|2-----7-7h8-7vv--7----------8---7-----7-7h8-7vv--7---8---9---10--| 
|0---0------------0--0-----------0---0------------5---6---7---8---| 
 
|-----------------------------------------------------------------| 
|-----------------------------------------------------------------| 
|-----------------------------------------------------------------| 
|----------------------5-5s7-----9--------------------------------| 
|5-6-7-8-7h8-7vv-7-----------8---7-----7-7h8-7vv-7---8---9---10---| 
|----------------0---0-----------0---0-----------5---6---7---8----| 
 
|---------| 
|---------|  
|---------| 
|---------| 
|5-6-7-8--| 
|---------| 
 
Verse                            P.M------ 
|------------------------------------------------------------------| 
|------------------------------------------------------------------| 
|------------------------------------------------------------------| 
|2-----------------------------------3-----------------------------| 
|2---------------------------------3-------------------------------| 
|0-------------------------------1---------------------------------| 
 
           
|----------------------------------------------------------------| 
|----------------------------------------------------------------| 
|------0---------------------------------------------------------| 
|----2-------------------------------3---------------------------| 
|--2-------------------------------3-----------------------------| 
|0-------------------------------1-------------------------3s10\-| 
 
 E5--------------|----------------|Bb5-------------|----------------|  
  
       
 A5--------------|----------------|Bb5-------------|------------E-E-|  
     
 
         
|--------0---------------0---------------------------------------| 
|------------0---------------0-----------3---------------3-------| 
|--------------------------------------------3---------------3---| 
|-----------------------------------3---------------3------------| 
|----2---------------2-----------1---------------1---------------| 
|0---------------0-----------------------------------------------| 
 
                       
|----------------------------------------------------------------| 
|--------3---------------3---------------3---------------3-------| 
|------------3---------------3---------------3---------------3---| 
|------------------------------------3---------------3-----------| 
|----1---------------1-----------1---------------1---------------| 
|3---------------3-----------------------------------------------| 
 
 
|----------------------------------------------------------------------------------| 
|----------------------------------------------------------------------------------| 
|----------------------------------------------------------------------------------| 
|--------------------------------------5-5s7-----9---------------------------------| 
|1---1---2---3---5-6-7-8-7h8-7---7-----------8---7-----7-7h8-7vv---7---8---9---10--| 
|--------------------------------0---0-----------0---0-------------5---6---7---8---| 
 
  
|------------------------------------------------------------------| 
|------------------------------------------------------------------| 
|------------------------------------------------------------------| 
|3---3-------3--------3---2h3-2vv--2---2-------2-------2---2h3-2vv-| 
|3---3-------3--------3------------2---2-------2-------2-----------| 
|1---1---1-1-1----1-1-1------------0---0---0-0-0---0-0-0-----------| 
 
    
|--------------------------------| 
|--------------------------------| 
|3---3-------3-------3-----------| 
|3---3-------3-------3---2h3-2vv-| 
|1---1---1-1-1---1-1-1-----------| 
|--------------------------------| 
 
 
|------------------------------------------------------------------| 
|------------------------------------------------------------------| 
|------------------------------------------------------------------| 
|7--------------------------------5--------------------------------| 
|7--------------------------------5--------------------------------| 
|5--------------------------------3--------------------------------| 
 
 
|-----------------------------------------------------------------| 
|-----------------------------------------------------------------|  
|-----------------------------------------------------------------| 
|----------------------5-5s7-----9--------------------------------| 
|2-----7-7h8-7vv--7----------8---7-----7-7h8-7vv--7---8---9---10--| 
|0---0------------0--0-----------0---0------------5---6---7---8---| 
 
|-----------------------------------------------------------------| 
|-----------------------------------------------------------------|  
|-----------------------------------------------------------------| 
|----------------------5-5s7-----9--------------------------------| 
|2-----7-7h8-7vv--7----------8---7-----7-7h8-7vv--7---8---9---10--| 
|0---0------------0--0-----------0---0------------5---6---7---8---| 
  
|---------| 
|---------|  
|---------| 
|---------| 
|5-6-7-8--| 
|---------| 
 
 
|------------------------------------------------------------------| 
|------------------------------------------------------------------| 
|------------------------------------------------------------------| 
|2-----------------------------------3-----------------------------| 
|2---------------------------------3-------------------------------| 
|0-------------------------------1---------------------------3s10\-| 
 
 E5--------------|----------------|Bb5-------------|----------------|  
                   
 
 A5--------------|----------------|Bb5-------------|------------E-E-|  
 
 
 
|--------0---------------0---------------------------------------| 
|------------0---------------0-----------3---------------3-------| 
|--------------------------------------------3---------------3---| 
|-----------------------------------3---------------3------------| 
|----2---------------2-----------1---------------1---------------| 
|0---------------0-----------------------------------------------| 
 
 
|----------------------------------------------------------------| 
|--------3---------------3---------------3---------------3-------| 
|------------3---------------3---------------3---------------3---| 
|------------------------------------3---------------3-----------| 
|----1---------------1-----------1---------------1---------------| 
|3---------------3-----------------------------------------------| 
 
 
|----------------------------------------------------------------------------------| 
|----------------------------------------------------------------------------------| 
|----------------------------------------------------------------------------------| 
|--------------------------------------5-5s7-----9---------------------------------| 
|1---1---2---3---5-6-7-8-7h8-7---7-----------8---7-----7-7h8-7vv---7---8---9---10--| 
|--------------------------------0---0-----------0---0-------------5---6---7---8---| 
 
 
|------------------------------------------------------------------| 
|------------------------------------------------------------------| 
|------------------------------------------------------------------| 
|3---3-------3--------3---2h3-2vv--2---2-------2-------2---2h3-2vv-| 
|3---3-------3--------3------------2---2-------2-------2-----------| 
|1---1---1-1-1----1-1-1------------0---0---0-0-0---0-0-0-----------| 
 
 
|--------------------------------| 
|--------------------------------| 
|3---3-------3-------3-----------| 
|3---3-------3-------3---2h3-2vv-| 
|1---1---1-1-1---1-1-1-----------| 
|--------------------------------| 
 
 
 
|------------------------------------------------------------------| 
|------------------------------------------------------------------| 
|------------------------------------------------------------------| 
|7--------------------------------5--------------------------------| 
|7--------------------------------5--------------------------------| 
|5--------------------------------3--------------------------------| 
 
 
|---------------------------------------------------------------------------| 
|---------------------------------------------------------------------------| 
|--------------------------------9--------------------------8--9--11/12--8--| 
|-----------------6-7-6vv--9-10-----------------6--7--9--10-----------------| 
|2----/7-7-8-7vv-------------------2------7--8------------------------------| 
|0---0-----------------------------0--0-0-----------------------------------| 
 
 
 
|---------------------------------------------------------------------------| 
|--------------------------------8--------------------------7--8--10-12--7vv| 
|-----------------4-5-4vv--8-9---9--------------4--5--8--9--8--9--11-12--8vv| 
|--------6-7-6vv--6-7-6vv--9-10-----------6--7--6--7--9--10-----------------| 
|2---2---7-8-7vv-------------------2--2---7--8------------------------------| 
|0---0-0---------------------------0--0-0-----------------------------------| 
 
 
Solo  
 
4:14 
 
|-12-\------------------------------------------------------------------------------------------| 
|-12-\---------------------------------9-12p9-9-12p9-9-10-9-------------------------------------| 
|-------9vvv-----9--(10)pb11--10-11b13-----------------------10p9-10p9-10-----------------------| 
|------------10---------------------------------------------------------------------------------| 
|-----------------------------------------------------------------------------------------------| 
|-----------------------------------------------------------------------------------------------|  
 
|-12-\-----------------------------------------------------| 
|-12-\---------------------15b17r15---15b17vvv-------------| 
|--------9vvv----9--9b10-----------------------------------| 
|-------------10-------------------------------------------| 
|----------------------------------------------------------| 
|----------------------------------------------------------| 
 
4:21 
 
  T     T           T     T           T     T           T     T           T     T           
|-17p16-17p16p13p12-17p16-17p16p13p12-17p16-17p16p13p12-17p16-17p16p13p12-17p16-17p16p13p12-----| 
|-----------------------------------------------------------------------------------------------| 
|-----------------------------------------------------------------------------------------------| 
|-----------------------------------------------------------------------------------------------| 
|-----------------------------------------------------------------------------------------------| 
|-----------------------------------------------------------------------------------------------| 
   T     T           T     T           T     T 
|-17p16-17p16p13p12-17p16-17p16p13p12-17p16-17p16p13p12----| 
|----------------------------------------------------------| 
|----------------------------------------------------------| 
|----------------------------------------------------------| 
|----------------------------------------------------------| 
|----------------------------------------------------------| 
 
4:25 
 
|-----------------------------------------------------------------------------------------------| 
|-15p13p12-15p12-15p13p12-15p12-17p15p12-12--15p12-17p15p12-12-15p13p12-13p12-------------------| 
|------------------------------------------------------------------------------14-13-14b16r14---| 
|---------------------------------------------------------------------------------------------13| 
|-----------------------------------------------------------------------------------------------| 
|-----------------------------------------------------------------------------------------------| 
 
4:29 
                                          T.B 
|-----------------------------------------------------16-17-17-17---16--------------------------| 
|-15b17-hb-r15--15b17vvv-15b17r15--12--15/\/\/\-16-17------------------18p17-17vv17-18p17-12vvv-| 
|-----------------------------------------------------------------------------------------------| 
|-----------------------------------------------------------------------------------------------| 
|-----------------------------------------------------------------------------------------------| 
|-----------------------------------------------------------------------------------------------| 
                             T.B                                            T.B 
|-------------------------------------------------------------17/19--19--19/\/\/\---------------| 
|-12-12-12--12--12s15--15-15/\/\/\--15-15-12-12-13--14/16/18--17/19--19--19/\/\/\---------------| 
|-12-12-12--12--12s15--15-15/\/\/\--15-15-12-12-13--14/16/18--17/19--19--19/\/\/\---------------| 
|-12-12-12--12--12s15--15-15/\/\/\------------------//--//--//----------------------------------| 
|-----------------------------------------------------------------------------------------------| 
|-----------------------------------------------------------------------------------------------| 
 
 
|-22b24--r22--22b24--r22vvvvvvvv-------------------------| 
|--------------------------------------------------------| 
|--------------------------------------------------------| 
|--------------------------------------------------------| 
|--------------------------------------------------------| 
|--------------------------------------------------------| 
 
4:51 
 
|-19p16-------19-19p16-------19-19p16-------19-19p16-16-------16-19p16-16\13-13-13h16p13-12-12--| 
|------17-17----------17-17----------17-17-------------17-17------------------------------------| 
|-----------------------------------------------------------------------------------------------| 
|-----------------------------------------------------------------------------------------------| 
|-----------------------------------------------------------------------------------------------| 
|-----------------------------------------------------------------------------------------------| 
 
|-13p12----12--------------------------------------------| 
|-------15----15p13-13-13-13h15p13vvvvvvvvvv-------------| 
|--------------------------------------------------------| 
|--------------------------------------------------------| 
|--------------------------------------------------------| 
|--------------------------------------------------------| 
 
 
 
 A5--------------|----------------|G5--------------|----------------|  
                 
 C5--------------|----------------|B5--------------|Bb5-------E-G-F#|  
 
 

	  

there isn't a video lesson for this song

request
Search
auto scroll beats size up size down change color hide chords drawings
tab show chords e-chords YouTube Clip e-chords hide all tabs e-chords go to top tab