Metallica

home > Metallica

Waste My Hate Tab

Metallica

Difficulty: ExpertExpert

tuner correct add songbook print version text version save to e-mail
chordsukulelecavacokeyboardtabbassdrummharmonicsflute Guitar Pro
chords

Waste My Hate

  		 
 Intro - Clean, really cheesy vocals . . . 
|--------------------------------------------------------------------------| 
|--------------------------------------------------------------------------| 
|--------------------------------------------------------------------------| 
|-------------------------------------5---5--------------------------------| 
|---------------5---7---7---7p5-------5---5---------5---5---5--------------| 
|-0---0---5h7---------------------7-----------5h7-------5---5---3---5---7--| 
 
|---------------------------------------------------------------------| 
|---------------------------------------------------------------------| 
|---------------------------------------------------------------------| 
|-------------------7---7-------------5---5---------------------------| 
|---------------5---7---7---7p5-------5---5---------5---5---5---------| 
|-0---0---5h7---------------------7-----------5h7-------5---5---3---5-| 
 
 
 Pre-verse riff 
|----------------|-----------------|-----------------|-------------| 
|----------------|-----------------|-----------------|-------------| 
|----------------|-----------------|-----------------|-------------| 
|x-x-9-x-9-8-x-7-|-----------------|---------------5-|-7-7---5-7-7-| 
|x-x-7-x-76-x-5-|-x-x-9-x-9-8-x-7-|-x-x-7-x-7-6---5/|-7-7---5-7-7-| 
|----------------|-x-x-7-x-76-x-5-|-x-x-5-x-54-0-3/|-5-5-0-3/5-5-| 
 
 
 Verse Riff 
|------------------------------------------| 
|------------------------------------------| 
|-9---9---9---9-9---10---10---10---10-10---| 
|-9---9---9---9-9---9----9----9----9--9----| 
|-7---7---7---7-7---7----7----7----7--7----| 
|------------------------------------------| 
 
 
 -----------------------------------| 
 -----------------------------------| 
 ----7---7-7---10---10---10---9-9-9-| 
 ----7---7-7---7----7----7----7-7-7-| 
 ----5---5-5---5----5----5----5-5-5-| 
 -----------------------------------| 
 
 
 This is the heavy riff used as a kind of bridge bit . . . 
|---------------------------------------------------------------| 
|---------------------------------------------------------------| 
|--------------------------------------------------10---10---10-| 
|----7---9-------7---9-------7---9-----7---9-------10---10---10-| 
|----5---7-------5---7-------5---7-----5---7-------8----8----8--| 
|0-----------0-----------0---------0-----------0----------------| 

	  

Search Paypal
auto scroll beats size up size down change color hide chords drawings
tab show chords e-chords YouTube Clip e-chords hide all tabs e-chords go to top tab