Metallica

home > Metallica

The Unforgiven Iii Tab

Metallica

Difficulty: BeginnerBeginner

by marcnagel

tuner correct add songbook print version text version save to e-mail
chordsukulelecavacokeyboardtabbassdrumsharmonicsflute Guitar Pro
chords

The Unforgiven Iii

  		Luego del teclado: 
|------------------------------------------------------| 
|------------------------------------------------------| 
|------------------------------------------------------| 
|--2-2-2------2-2-2------2-2-2------2-2-2------2-2-2---|         
|------------------------------------------------------| 
|-0-0-0-2/3--0-0-0-2/3--0-0-0-2/3--0-0-0-2/3--0-0-0-2/3| 

|------------------------------------------------------| 
|------------------------------------------------------| 
|------------------------------------------------------| 
|--2-2-2------2-2-2------2-2-2------2-2-2--------------|         
|------------------------------------------------------| 
|-0-0-0-2/3--0-0-0-2/3--0-0-0-2/3--0-0-0-2/3-----------| 

|------------------------------------------------------| 
|------------------------------------------------------| 
|------------------------------------------------------| 
|--2-2-2------2-2-2------2-2-2-2-2-2-2-2---------------|         
|-----------------------3-3-3-3-2-2-2-2----------------| 
|-0-0-0-2/3--0-0-0-2/3---------------------------------| 

|------------------------------------------------------| 
|------------------------------------------------------| 
|------------------------------------------------------| 
|--2-2-2------2-2-2------2-2-2-2-2-2-2-2---------------|         
|-----------------------3-3-3-3-2-2-2-2----------------| 
|-0-0-0-2/3--0-0-0-2/3---------------------------------| 

|------------------------------------------------------| 
|------------------------------------------------------| 
|------------------------------------------------------| 
|--2-2-2------2-2-2------2-2-2-2-----------------------|         
|------------------------------------------------------| 
|-0-0-0-2/3--0-0-0-2/3--0-0-0-0------------------------| 


Antes del solo: 
|------------------------------------------------------| 
|------------------------------------------------------| 
|------------------------------------------------------| 
|--2-2-2------2-2-2------2-2-2------2-2-2--------------|         
|----------------------------------0-0-0---------------| 
|-0-0-0-2/3--2-2-2-3/5--3-3-3-5/7---------3/2----------| 
(Ésta última parte se repite hasta el solo) 


Espero que les sirva. 
Chau. 
	  

Search Paypal
auto scroll beats size up size down change color hide chords drawings
tab show chords e-chords YouTube Clip e-chords hide all tabs e-chords go to top tab