Metallica

home > Metallica

The unforgiven II Tab

Metallica

Difficulty: BeginnerBeginner

by d%40nilo+89

tuner correct add songbook print version text version save to e-mail
chordsukulelecavacokeyboardtabbassdrumsharmonicsflute Guitar Pro
chords

The unforgiven II

  		b = Bend 
h = Hammer 
r = Reverse bend 
p = Pull-off 
~ = Vibration 
 
All guitars should be tuned 1/2 step down. 
 
Intro: 
 
1st guitar play this {this was played by Kirk} : 
|----------------------------------------------------------------| 
|----------------------------------------------------------------| 
|-2-2--4/5--7\5/7~-7/9\7--5/7\5--2-2--4/5--7\5/7~--7/9\7~--------| 
|-2-2--4/5--7\5/7~-7/9\7--5/7\5--2-2--4/5--7\5/7~--7/9\7~--7/9\7-|    
|-0-0--2/3--5\3/5~-5/7\5--3/5\3--0-0--2/3--5\3/5~--5/7\5~--7/9\7-|     
|----------------------------------------------------------5/7\5-| 
 
2nd guitar play this {this was played by james} : 
|----------------------------------------------------------------| 
|----------------------------------------------------------------| 
|-2-2--4/5--7\5/---7/9\7--5/7\5--5-2--4/5--7\5/----7/9\7~--------| 
|-2-2--4/5--7\5/5~-7/9\7--5/7\5--5-2--4/5--7\5/5~--7/9\7~--7/9\7-|     
|-0-0--2/3--5\3/5~-5/7\5--3/5\3--3-0--2/3--5\3/5~--5/7\5~--7/9\7-|    
|---------------3~-----------------------------3~----------5/7\5-| 
 
Verse 1: 
|-------0----------------3-3------3--------------------|{This will   
|---------1------------1/3-3h5bp3---5bp3-0-0---1h3-1-0-| work as the 
|-----2-------------0------------------------0---------| plucking  
|---2-------------2------------------------------------| style will  
|-0---------0-2-3--------------------------------------| always  
|------------------------------------------------------| change}     
 
Verse 2: 
|-------0-----------3---3--------3--------------------|{This is a  
|---------1-------1---1---1--1/3---5bp3-0-0---1h3-1-0-| bit 
|-----2-------------------------------------0---------| different} 
|---2-------------------------------------------------| 
|-0---------0-2-3-------------------------------------| 
|-----------------------------------------------------| 
 
Verse 3: 
1st guitar..... 
|-5---5---3---3---3---3----------|                                    
|-5---5---3---3---3---3---5---5--|                                    
|-5---5---5---5---5---5---5---5--|                                    
|--7---7---5---5---5---5--6---6--|                                 
|--------------------------7---7-|                                    
|--------------------------------|    
 
2nd guitar..... 
|------------------------------|{the echo level must be 
|-6bp5~~~---------1h3~~~-------| high while playing this}  
|------------------------------|     
|------------------------------| 
|------------------------------| 
|------------------------------| 
 
Verse 4: 
|-1---1---1---1---3---3---1---1----0-| 
|-3---3---3---3---3---3---3---3----0-|                                 
|-2---2---2---2---2---2---2---2----2-| 
|--0---0---0---0---0---0---0---0---2-| 
|----------------------------------0-| 
|------------------------------------| 
 
Verse 5: 
|-----1-----------------------------0-| 
|-------3---------------------------0-| 
|-------------2-3-------------------2-| 
|---0-------0------------5-----3-5--2-| 
|-0-------0----------2-3-----2------0-| 
|-----------------3--------1----------| 
 
Chorus: 
|--------------------------------------------------------| 
|-0h1--1--1--1--1p0--0--0--0--1h3--3--3--3--3p1--1--1--1-| 
|-0----0--0--0--0----0--0--0--2----2--2--2--2----2--2--2-| 
|--------------------------------------------------------| 
|--------------------------------------------------------| 
|--------------------------------------------------------| 
 
|-----------------------------------------------------------| 
|-0h1--1--1--1--1p0--0--0--0--1h3--3--3--3--3--1--0--1--0---| 
|-0----0--0--0--0----0--0--0--2----2--2--2----------------2-| 
|-----------------------------------------------------------| 
|-----------------------------------------------------------| 
|-----------------------------------------------------------| 
 
Chorus fill in: 
|-------------------| 
|-------------------| 
|-2-4-4/5-5-5-5-4-0-| 
|-------------------| 
|-------------------| 
|-------------------| 
 
Solo: 
|----------------------------------------------| 
|-----------------------------13-15br-13----13-| 
|-2-2-4-5-7b-5h7p5-4-5----/14------------14----| 
|----------------------5-----------------------| 
|----------------------------------------------| 
|----------------------------------------------| 
 
|------15-----15-----15------------------| 
|-15b----15b----15b----15b-15br-13----13-| 
|----------------------------------14----| 
|----------------------------------------| 
|----------------------------------------| 
|----------------------------------------| 
 
|-15b--15b-15b-15b------17------------17--------| 
|-------------------/17----17-20b-/17----17-20b-| 
|-----------------------------------------------| 
|-----------------------------------------------| 
|-----------------------------------------------| 
|-----------------------------------------------| 
 
|-----17------------------------------------| 
|-/17----17-20br-17----------19-17----19-17-| 
|-------------------19-17----19-17----19-17-| 
|-------------------------19-------19-------| 
|-------------------------------------------| 
|-------------------------------------------| 
 
|---------------------------------| 
|----19-17------------------19-17-| 
|----19-17----17-19br-17----19-17-| 
|-19-------19------------19-------| 
|---------------------------------| 
|---------------------------------| 
 
End: 
|------------------------------------------------------| 
|------------------------------------------------------| 
|--2-2~--2-2-4-4~---2~--2-7-7~--2-2~--2-4~~------------| 
|--2-2~--2-2-4-4~---2~--2-7-7~--2-2~--2-4~~--5~~--2~~--| 
|--0-0~--0-0-2-2~---0~--0-5-5~--0-0~--0-2~~--5~~--2~~--| 
|--------------------------------------------3~~-------| 
 
 

	  

Search Paypal
auto scroll beats size up size down change color hide chords drawings
tab show chords e-chords YouTube Clip e-chords hide all tabs e-chords go to top tab