Metallica

home > Metallica

That Was Just Your Life Tab

Metallica

Difficulty: AdvancedAdvanced

by gustsilva

tuner correct add songbook print version text version save to e-mail
chordsukulelecavacokeyboardtabbassdrumsharmonicsflute Guitar Pro
chords

That Was Just Your Life

  		 
E|-------------------------------------------------------------------| 
B|-------------------------------------------------------------------| 
G|--------0-----------------------0----------------------------------| 
D|-----2-----2----------3-------2---2-------3------------------------| 
A|---1---------------1--------1-----------1--------------------------| 
E|-0--------------0---------0-----------0----------------------------| 
 

       | PM    |                  | PM    | 
 
E|-------------------------------------------------------------------| 
B|-------------------------------------------------------------------| 
G|-------------------------------------------------------------------| 
D|--2---2-2-2-2-----2-2-3-----2----2-2-2-2-----2-2-3-----------------| 
A|--2---2-2-2-2-----2-1-3-----2----2-2-2-2-----2-1-3-----------------| 
E|--0---0-0-0-0-----0-0-1-----0----0-0-0-0-----0-0-1-----------------| 
 

 
E|-------------------------------------------------------------------| 
B|-------------------------------------------------------------------| 
G|-------------------------------------------------------------------| 
D|------------8-8-8-8--8--8--3--4--2---------------------------------| 
A|-----7------8-8-8-8--8--8--3--4--2---------------------------------| 
E|-0-6---6----6-6-6-6--6--6--1--2--0---------------------------------| 
 

 
E|-------------------------------------------------------------------| 
B|-------------------------------------------------------------------| 
G|-------------------------------------------------------------------| 
D|-----------------8--3-----------------8--3-------------------------| 
A|-----7-------7---8--3------7------7---8--3-------------------------| 
E|-0-6-----0-6-----6--1--0-6----0-6-----6--1-------------------------| 
 

 
E|-------------------------------------------------------------------| 
B|-------------------------------------------------------------------| 
G|-------------------------------------------------------------------| 
D|-------------------------------------------------------------------| 
A|------------7-----------------------------7------------------------| 
E|---000--5-6----6-5-6-------------000--5-6----6-5-6-----------------| 
 
  PM|---|                       PM|---| 

 
E|-------------------------------------------------------------------| 
B|-------------------------------------------------------------------| 
G|-------------------------------------------------------------------| 
D|-------------------------------------------------------------------| 
A|------------7------------------------------------------------------| 
E|---000--5-6----6-5-6----------5-3-5-6-5-3-1-0----------------------| 
 
  PM|---| 

 
E|-------------------------------------------------------------------| 
B|-------------------------------------------------------------------| 
G|-------------------------------------------------------------------|   (2x) 
D|---------------------------------------------------8------3--------| 
A|---------7~------------7~------------7~------------8------3--------| 
E|---0-5-6---------0-5-6---------0-5-6---------------6------1--------| 
 

 
E|-------------------------------------------------------------------| 
B|-------------------------------------------------------------------| 
G|-------------------------------------------------------------------|   (3x) 
D|-------------------------------------------------------------------| 
A|-------------------------------------------------------------------| 
E|--0-0--0--0--0-0-0--0--0--0-0-0--0--0--0---5-3-5-6-5-3-1-0---------| 
 
   
PM|-------------------------------------| 
E|---------------------|    |-----------------| 
B|---------------------|    |-----------------| 
G|---------------------|    |--5-5------------| 
D|---------------------|    |--5-5------------| 
A|------2-2---3-3------|    |--3-3-----3-3----| 
 
E|------0-0---1-1------|    |----------1-1----| 
     PM|---| 
E|----------------------------------------------------------------| 
B|----------------------------------------------------------------| 
G|----------------------------------------------------------------| 
D|-9-9-9-9-9-9----------------------------------------------------| 
A|-7-7-7-7-7-7-8-8-7-7-7-7-7-7-5-5-3-3-3-3-3-3-3-3--3--2--2--2----| 
 
E|-------------6-6-5-5-5-5-5-5-3-3-1-1-1-1-1-1-1-1--1--0--0--0----| 
 

 
E|---------------------------------------------------------------------| 
B|---------------------------------------------------------------------| 
G|-----------------------------------------------------------5--5--5---| 
D|-9-9-9-9-9-9-----------------------------------------------5--5--5---| 
A|-7-7-7-7-7-7-8-8-7-7-7-7-7-7-5-5-3-3-3-3-3-3-3-3-3---3--2--3--3--3---| 
E|-------------6-6-5-5-5-5-5-5-3-3-1-1-1-1-1-1-1-1-3---1--0--0--0--0---| 
 

 
E|------------------------------------------------------------------| 
B|------------------------------------------------------------------| 
G|--------------------------------------------------------7---7---7-| 
D|-9-9-9-9-9-9--------------------------------------------7--7--7---| 
A|-7-7-7-7-7-7-8-8-7-7-7-7-7-7-5-5-3-3-3-3-3-3-3-3--3--2--5--5--5---| 
E|-------------6-6-5-5-5-5-5-5-3-3-1-1-1-1-1-1-1-1--1--0--0--0--0---| 
 

 
E|---------------------------------------------------| 
B|---------------------------------------------------| 
G|---------------------------------------------------| 
D|-9-9-9-9-9-9---------------------------------------| 
A|-7-7-7-7-7-7-8-8-7-7-7-7-7-7-5-5-3-3-3-3-3-3-3-3---| 
E|-------------6-6-5-5-5-5-5-5-3-3-1-1-1-1-1-1-1-1---| 
 

Solo: 
 
E|-------------------------------------------------------| 
B|-17-15-12-17-15-12-17-15-12-17-15-12-17-15-12-17-15-12-| 
G|-------------------------------------------------------|   (2x) 
D|-------------------------------------------------------| 
A|-------------------------------------------------------| 
E|-------------------------------------------------------| 
 

 
E|---------------------------------17b19-------------------17b19-12-------------------------------| 
B|-17b19-17b19---17p15---------15---------17p15---------15---------15-12--12----------------------| 
G|--------------------16-14-16-----------------16-14-16-----------------15---14-12-12-------------| 
D|--------------------------------------------------------------------------------14--14---12-----| 
A|--------------------------------------------------------------------------------------------15-14 
E|------------------------------------------------------------------------------------------------| 
 

 
E|---------------------------------| 
B|---------------------------------| 
G|-4p0h4p0h5p0h5p0h4p0h4p0h5p0h5p--|  (2x) 
D|---------------------------------| 
A|---------------------------------| 
E|---------------------------------| 
 

 
E|---------------------------------------------| 
B|---------------------------------------------| 
G|-0h07p0h7p0h5p0h5p0h4p0h4p0h5----------------| 
D|------------------------------0(whammy dive)-| 
A|---------------------------------------------| 
E|---------------------------------------------| 
 

 
E|----------------------------------------------------| 
B|----------------------------------------------------| 
G|----10h12p10----10h12p10----10p12h10-----10h12p10---| 
D|--12---------12----------12-----------12------------| 
A|----------------------------------------------------| 
E|----------------------------------------------------| 
 

E|--------------------------------| 
B|--------------------------------| 
G|--------------------------------| 
D|---------12---------------------| 
A|---14-15----14--12--------------| 
E|----------------12--------------| 
	  

Search Paypal
auto scroll beats size up size down change color hide chords drawings
tab show chords e-chords YouTube Clip e-chords hide all tabs e-chords go to top tab