Metallica

home > Metallica

So What / Batery - Live Mexico City 93 Tab

Metallica

Difficulty: nolevelnolevel

by Hetfield2

tuner correct add songbook print version text version save to e-mail
chordsukulelecavacokeyboardtabbassdrumsharmonicsflute Guitar Pro
chords

So What / Batery - Live Mexico City 93

(James, Lars)

  		Intro 

E|----------------------------------------------------------------|| 
B|----------------------------------------------------------------|| 
G|----------------------------------------------------------------|| 
D|-5/7---7-7-7-----5/7---7-7-7-----5/7-----5/7-----5/7---7-7-7----|| 
A|-5/7---7-7-7-----5/7---7-7-7-----5/7-----5/7-----5/7---7-7-7----|| 
E|-3/5---5-5-5--0--3/5---5-5-5--0--3/5--0--3/5--0--3/5---5-5-5--0-|| 

E|-------------------------------------------------------------------|| 
B|-------------------------------------------------------------------|| 
G|-------------------------------------------------------------------|| 
D|-5/7---7-7-7-----5/7---7-7-7-----5/7-----5/7-----5/7---7-7-7---7-7-|| 
A|-5/7---7-7-7-----5/7---7-7-7-----5/7-----5/7-----5/7---7-7-7---7-7-|| 
E|-3/5---5-5-5--0--3/5---5-5-5--0--3/5--0--3/5--0--3/5---5-5-5---5-5-|| 

1st Verse 

E|----------------------------------------------|| 
B|----------------------------------------------|| 
G|-7--------------------------------------------|| 
D|-7---7-7-7-7-7-7-7-7-7-7-7-7-7-7-7-7-7-7-7----|| 
A|-5---5-5-5-5-5-5-5-5-5-5-5-5-5-5-5-5-5-5-5----|| 
E|--------------------------------------------0-|| 

E|-------------------------------------------------------------------|| 
B|-------------------------------------------------------------------|| 
G|-------------------------------------------------------------------|| 
D|-5/7---7-7-7-----5/7---7-7-7-----5/7-----5/7-----5/7---7-7-7---7-7-|| 
A|-5/7---7-7-7-----5/7---7-7-7-----5/7-----5/7-----5/7---7-7-7---7-7-|| 
E|-3/5---5-5-5--0--3/5---5-5-5--0--3/5--0--3/5--0--3/5---5-5-5---5-5-|| 

E|----------------------------------------------|| 
B|----------------------------------------------|| 
G|-7--------------------------------------------|| 
D|-7---7-7-7-7-7-7-7-7-7-7-7-7-7-7-7-7-7-7-7----|| 
A|-5---5-5-5-5-5-5-5-5-5-5-5-5-5-5-5-5-5-5-5----|| 
E|--------------------------------------------0-|| 

E|------------------------------------------------------------------|| 
B|------------------------------------------------------------------|| 
G|------------------------------------------------------------------|| 
D|-5/7---7-7-7-----5/7---7-7-7-----5/7-----5/7-----5/7---7-7-7---7\-|| 
A|-5/7---7-7-7-----5/7---7-7-7-----5/7-----5/7-----5/7---7-7-7---7\-|| 
E|-3/5---5-5-5--0--3/5---5-5-5--0--3/5--0--3/5--0--3/5---5-5-5---5\-|| 

Chorus 

Guitar I  James 
E|-----------|-----------|-----------------|-----------------|| 
B|-----------|-----------|-----------------|-----------------|| 
G|-----------|-3---3-3-3-|-----------------|-----------------|| 
D|-3---3-3-3-|-3---3-3-3-|-7---7-7-7-----5/|7---7-7-7-----5\-|| 
A|-3---3-3-3-|-1---1-1-1-|-7---5-5-5-----5/|7---7-7-7-----5\-|| 
E|-1---1-1-1-|-----------|-5---5-5-5--0--3/|5---5-5-5--0--3\-|| 

E|-----------|-----------|-----------------|----------------|----------------|--------------|| 
B|-----------|-----------|-----------------|----------------|----------------|--------------|| 
G|-----------|-3---3-3-3-|-----------------|----------------|----------------|--------------|| 
D|-3---3-3-3-|-3---3-3-3-|-7---7-7-7-----5/|7---7-7-7-----5/|7-----5/7-----5/|7---7-7-7---7-|| 
A|-3---3-3-3-|-1---1-1-1-|-7---5-5-5-----5/|7---7-7-7-----5/|7-----5/7-----5/|7---7-7-7---5-|| 
E|-1---1-1-1-|-----------|-5---5-5-5--0--3/|5---5-5-5--0--3/|5--0--3/5--0--3/|5---5-5-5---5-|| 

Guitar II  Kirk 
E|------------|-6----------|------|-----|------------|-6----------|------|-----|| 
B|-------6----|----6-----6-|-5~---|-(5)-|-------6----|----6-----6-|-5~---|-(5)-|| 
G|----5-----5-|-------7----|------|-----|----5-----5-|-------7----|------|-----|| 
D|-3----------|------------|------|-----|-3----------|------------|------|-----|| 
A|------------|------------|------|-----|------------|------------|------|-----|| 
E|------------|------------|------|-----|------------|------------|------|-----|| 

E|-----------------|--------------|| 
B|-----------------|--------------|| 
G|-----------------|--------------|| 
D|-7-----5/7-----5/|7---7-7-7---7-|| 
A|-7-----5/7-----5/|7---7-7-7---5-|| 
E|-5--0--3/5--0--3/|5---5-5-5---5-|| 

2nd Verse 

E|----------------------------------------------|| 
B|----------------------------------------------|| 
G|-7--------------------------------------------|| 
D|-7---7-7-7-7-7-7-7-7-7-7-7-7-7-7-7-7-7-7-7----|| 
A|-5---5-5-5-5-5-5-5-5-5-5-5-5-5-5-5-5-5-5-5----|| 
E|--------------------------------------------0-|| 

E|-------------------------------------------------------------------|| 
B|-------------------------------------------------------------------|| 
G|-------------------------------------------------------------------|| 
D|-5/7---7-7-7-----5/7---7-7-7-----5/7-----5/7-----5/7---7-7-7---7-7-|| 
A|-5/7---7-7-7-----5/7---7-7-7-----5/7-----5/7-----5/7---7-7-7---7-7-|| 
E|-3/5---5-5-5--0--3/5---5-5-5--0--3/5--0--3/5--0--3/5---5-5-5---5-5-|| 

E|----------------------------------------------|| 
B|----------------------------------------------|| 
G|-7--------------------------------------------|| 
D|-7---7-7-7-7-7-7-7-7-7-7-7-7-7-7-7-7-7-7-7----|| 
A|-5---5-5-5-5-5-5-5-5-5-5-5-5-5-5-5-5-5-5-5----|| 
E|--------------------------------------------0-|| 

E|------------------------------------------------------------------|| 
B|------------------------------------------------------------------|| 
G|------------------------------------------------------------------|| 
D|-5/7---7-7-7-----5/7---7-7-7-----5/7-----5/7-----5/7---7-7-7---7\-|| 
A|-5/7---7-7-7-----5/7---7-7-7-----5/7-----5/7-----5/7---7-7-7---7\-|| 
E|-3/5---5-5-5--0--3/5---5-5-5--0--3/5--0--3/5--0--3/5---5-5-5---5\-|| 

Chorus 

Guitar I  James 
E|-----------|-----------|-----------------|-----------------|| 
B|-----------|-----------|-----------------|-----------------|| 
G|-----------|-3---3-3-3-|-----------------|-----------------|| 
D|-3---3-3-3-|-3---3-3-3-|-7---7-7-7-----5/|7---7-7-7-----5\-|| 
A|-3---3-3-3-|-1---1-1-1-|-7---5-5-5-----5/|7---7-7-7-----5\-|| 
E|-1---1-1-1-|-----------|-5---5-5-5--0--3/|5---5-5-5--0--3\-|| 

E|-----------|-----------|-----------------|----------------|----------------|--------------|| 
B|-----------|-----------|-----------------|----------------|----------------|--------------|| 
G|-----------|-3---3-3-3-|-----------------|----------------|----------------|--------------|| 
D|-3---3-3-3-|-3---3-3-3-|-7---7-7-7-----5/|7---7-7-7-----5/|7-----5/7-----5/|7---7-7-7---7-|| 
A|-3---3-3-3-|-1---1-1-1-|-7---5-5-5-----5/|7---7-7-7-----5/|7-----5/7-----5/|7---7-7-7---5-|| 
E|-1---1-1-1-|-----------|-5---5-5-5--0--3/|5---5-5-5--0--3/|5--0--3/5--0--3/|5---5-5-5---5-|| 

Guitar II  Kirk 
E|------------|-6----------|------|-----|------------|-6----------|------|-----|| 
B|-------6----|----6-----6-|-5~---|-(5)-|-------6----|----6-----6-|-5~---|-(5)-|| 
G|----5-----5-|-------7----|------|-----|----5-----5-|-------7----|------|-----|| 
D|-3----------|------------|------|-----|-3----------|------------|------|-----|| 
A|------------|------------|------|-----|------------|------------|------|-----|| 
E|------------|------------|------|-----|------------|------------|------|-----|| 

E|-----------------|--------------|| 
B|-----------------|--------------|| 
G|-----------------|--------------|| 
D|-7-----5/7-----5/|7---7-7-7---7-|| 
A|-7-----5/7-----5/|7---7-7-7---5-|| 
E|-5--0--3/5--0--3/|5---5-5-5---5-|| 

Solo 

Guitar I  James 
Verse 
Chorus 

Guitar II - Kirk 
E|-10-----10-10-10-10-10-7-|-10-10-10-10-10-10-10-10-|-----------------------------|| 
B|-10-----10-10-10-10-10-7-|-10-10-10-10-10-10-10-10-|-13b15--10--13b15--10--10----|| 
G|-12b14-------------------|-------------------------|-12---------12---------12b14-|| 
D|-------------------------|-------------------------|-----------------------------|| 
A|-------------------------|-------------------------|-----------------------------|| 
E|-------------------------|-------------------------|-----------------------------|| 

E|--------------------------------|----------------------------|--------------------|| 
B|-10--10-----10--10-----10-------|----------------------------|--------------------|| 
G|-----12b14------12b14------14\4-|-7b9r7-5-5-----5--7--7--7b9-|-7b9r7-7b9r7--5-----|| 
D|--------------------------------|------------7---------------|----------------7---|| 
A|--------------------------------|----------------------------|--------------------|| 
E|--------------------------------|----------------------------|--------------------|| 

E|---------------------|-------------------|-10--10-10-10-10-10-10----|| 
B|----7b--------5--7p5-|-------7--5~-------|-10--10-10-10-10-10-10----|| 
G|-5--7b--5-----5--7p5-|----5--7--5~---3/8-|--------------------------|| 
D|-----------7---------|-7-----------------|--------------------------|| 
A|---------------------|-------------------|--------------------------|| 
E|---------------------|-------------------|--------------------------|| 

E|-----------------------------------|-----------------------------------------|| 
B|-13p10----------------------10--10-|-13p10-----10--13--10h13p10--------------|| 
G|-------12--10------10--12b---------|-------12-------------------12--10-------|| 
D|---------------12------------------|------------------------------------12---|| 
A|-----------------------------------|-----------------------------------------|| 
E|-----------------------------------|-----------------------------------------|| 

E|--------------------------|---------------|-----------------|--------------5--------|| 
B|--------------------------|---------------|-----------------|-----------------8p5---|| 
G|-10--12--12b14r12--10-----|-7b9r7-5-5-----|-5---------------|-5-----5--7b---------7-|| 
D|-----------------------12-|------------7~-|----7--5--7~-7-7-|----7------------------|| 
A|--------------------------|---------------|-----------------|-----------------------|| 
E|--------------------------|---------------|-----------------|-----------------------|| 

E|--------------------|------------------------|--------------------------17--20p17--|| 
B|--------------------|------------------------|-----------------20~--20-------------|| 
G|-5-----5---------17-|-19b21r19---------17-19-|-19b21r19---17-----------------------|| 
D|----7-----7---19----|-----------19~-19-------|-------------------------------------|| 
A|--------------------|------------------------|-------------------------------------|| 
E|--------------------|------------------------|-------------------------------------|| 

E|-20p17-------------------------------|---------------|--------------------------|| 
B|-------20--17------------------------|-20------------|--------------------------|| 
G|---------------19--17------17--19b21-|-----b21r19b21-|-19b21r19-17--------17-19-|| 
D|-----------------------19------------|---------------|-------------19~-19-------|| 
A|-------------------------------------|---------------|--------------------------|| 
E|-------------------------------------|---------------|--------------------------|| 

E|--------------------------|----------------------|---------------------|| 
B|-------------20~-20-17----|----------------------|---------------------|| 
G|-19b21r19-17-----------19-|-19b21---19b21--19b21-|-19b21--19b21--19b21-|| 
D|--------------------------|----------------------|---------------------|| 
A|--------------------------|----------------------|---------------------|| 
E|--------------------------|----------------------|---------------------|| 

E|-------------------------|---------------------------|| 
B|-------------------------|---------------------------|| 
G|-17----------17----17-19-|-20p17-----17--------------|| 
D|----19-17-19----19-------|-------19------19--17h19---|| 
A|-------------------------|---------------------------|| 
E|-------------------------|---------------------------|| 

Intro 
E|-------------------|| 
B|-------------------|| 
G|-------4-----------|| 
D|---2---4---5---4---|| 
A|---2---2---5---6---|| 
E|---0-------3-------|| 

Guitar I  James 
E|--------------------------|--------------------------|| 
B|--------------------------|--------------------------|| 
G|--------------------------|--------------------------|| 
D|-5----------------8--8--7-|------------------5--5--4-|| 
A|-7----------------8--8--7-|------------------7--7--6-|| 
E|----0-0-0--0-0-0--6--6--5-|-0--0-0-0--0-0-0----------|| 

E|--------------------------|-------------------|| 
B|--------------------------|-------------------|| 
G|--------------------------|-------------------|| 
D|-5----------------8--8--7-|----4--5-----5--6--|| 
A|-7----------------8--8--7-|----4--5-----5--6--|| 
E|----0-0-0--0-0-0--6--6--5-|-0--2--3--0--3--4--|| 

E|--------------------------|--------------------------|| 
B|--------------------------|--------------------------|| 
G|--------------------------|--------------------------|| 
D|-5----------------8--8--7-|------------------5--5--4-|| 
A|-7----------------8--8--7-|------------------7--7--6-|| 
E|----0-0-0--0-0-0--6--6--5-|-0--0-0-0--0-0-0----------|| 

E|--------------------------|--------------------|| 
B|--------------------------|--------------------|| 
G|--------------------------|--------------------|| 
D|-5----------------8--8--7-|-8--7---7---7---7---|| 
A|-7----------------8--8--7-|-8--7---7---7---7---|| 
E|----0-0-0--0-0-0--6--6--5-|-6--5---5---5---5---|| 

Guitar II - Kirk 
E|------|------|------|------|------------------|--------|-------|------------------|| 
B|------|------|------|------|------------------|--------|-------|------------------|| 
G|------|------|------|------|------------------|--------|-------|------------------|| 
D|------|------|------|------|-5--------8--8--7-|--------|-------|-8--7---7---7---7-|| 
A|------|------|------|------|-7--------8--8--7-|--------|-------|-8--7---7---7---7-|| 
E|------|------|------|------|----------6--6--5-|-0------|-------|-6--5---5---5---5-|| 

Two Guitars 
E|--------------------------|--------------------------|| 
B|--------------------------|--------------------------|| 
G|--------------------------|--------------------------|| 
D|-5----------------8--8--7-|------------------5--5--4-|| 
A|-7----------------8--8--7-|------------------7--7--6-|| 
E|----0-0-0--0-0-0--6--6--5-|-0--0-0-0--0-0-0----------|| 

E|--------------------------|-------------------|| 
B|--------------------------|-------------------|| 
G|--------------------------|-------------------|| 
D|-5----------------8--8--7-|----4--5-----5--6--|| 
A|-7----------------8--8--7-|----4--5-----5--6--|| 
E|----0-0-0--0-0-0--6--6--5-|-0--2--3--0--3--4--|| 

E|--------------------------|--------------------------|| 
B|--------------------------|--------------------------|| 
G|--------------------------|--------------------------|| 
D|-5----------------8--8--7-|------------------5--5--4-|| 
A|-7----------------8--8--7-|------------------7--7--6-|| 
E|----0-0-0--0-0-0--6--6--5-|-0--0-0-0--0-0-0----------|| 

E|--------------------------|------------------|-------|-------|----------------|| 
B|--------------------------|------------------|-------|-------|----------------|| 
G|--------------------------|------------------|-------|-------|----------------|| 
D|-5----------------8--8--7-|-8--7---7---7---7-|--2----|--5----|--7---------4---|| 
A|-7----------------8--8--7-|-8--7---7---7---7-|--2----|--5----|--7---------6---|| 
E|----0-0-0--0-0-0--6--6--5-|-6--5---5---5---5-|--0----|--3----|--5----0-0------|| 


1st Verse 
E|--------------------------|--------------------------|| 
B|--------------------------|--------------------------|| 
G|--------------------------|--------------------------|| 
D|-5----------------8--8--7-|------------------5--5--4-|| 
A|-7----------------8--8--7-|------------------7--7--6-|| 
E|----0-0-0--0-0-0--6--6--5-|-0--0-0-0--0-0-0----------|| 

E|--------------------------|-------------------|| 
B|--------------------------|-------------------|| 
G|--------------------------|-------------------|| 
D|-5----------------8--8--7-|----4--5-----5--6--|| 
A|-7----------------8--8--7-|----4--5-----5--6--|| 
E|----0-0-0--0-0-0--6--6--5-|-0--2--3--0--3--4--|| 

E|--------------------------|--------------------------|| 
B|--------------------------|--------------------------|| 
G|--------------------------|--------------------------|| 
D|-5----------------8--8--7-|------------------5--5--4-|| 
A|-7----------------8--8--7-|------------------7--7--6-|| 
E|----0-0-0--0-0-0--6--6--5-|-0--0-0-0--0-0-0----------|| 

E|--------------------------|-------------------|| 
B|--------------------------|-------------------|| 
G|--------------------------|-------------------|| 
D|-5----------------8--8--7-|----4--5-----5--6--|| 
A|-7----------------8--8--7-|----4--5-----5--6--|| 
E|----0-0-0--0-0-0--6--6--5-|-0--2--3--0--3--4--|| 

Chorus 
E|-------|-------|--------------|--------------------------|--------------------------|| 
B|-------|-------|--------------|--------------------------|--------------------------|| 
G|-------|-------|--------------|--------------------------|--------------------------|| 
D|--2----|--5----|--7---------4-|-5----------------8--8--7-|------------------5--5--4-|| 
A|--2----|--5----|--7---------6-|-7----------------8--8--7-|------------------7--7--6-|| 
E|--0----|--3----|--5----0-0----|----0-0-0--0-0-0--6--6--5-|-0--0-0-0--0-0-0----------|| 

E|--------------------------|-------------------|-------|-------|--------------|| 
B|--------------------------|-------------------|-------|-------|--------------|| 
G|--------------------------|-------------------|-------|-------|--------------|| 
D|-5----------------8--8--7-|----4--5-----5--6--|--2----|--5----|--7---------4-|| 
A|-7----------------8--8--7-|----4--5-----5--6--|--2----|--5----|--7---------6-|| 
E|----0-0-0--0-0-0--6--6--5-|-0--2--3--0--3--4--|--0----|--3----|--5----0-0----|| 

E|--------------------------|--------------------------|---------|------------|| 
B|--------------------------|--------------------------|---------|------------|| 
G|--------------------------|--------------------------|------4--|------------|| 
D|-5----------------8--8--7-|------------------5--5--4-|--2---4--|--5----5--4-|| 
A|-7----------------8--8--7-|------------------7--7--6-|--2---2--|--5----7--6-|| 
E|----0-0-0--0-0-0--6--6--5-|-0--0-0-0--0-0-0----------|--0------|--3---------|| 

E|--------------------------|--------------------------|--------------------------------|| 
B|--------------------------|--------------------------|--------------------------------|| 
G|--------------------------|--------------------------|--------------------------------|| 
D|-5----------------8--8--7-|------------------5--5--4-|-5----------------8--8----------|| 
A|-7----------------8--8--7-|------------------7--7--6-|-7----------------8--8--0--1----|| 
E|----0-0-0--0-0-0--6--6--5-|-0--0-0-0--0-0-0----------|----0-0-0--0-0-0--6--6--------1-|| 

E|--------------------------|--------------------------|--------------------------|-----------|| 
B|--------------------------|--------------------------|--------------------------|-----------|| 
G|--------------------------|--------------------------|--------------------------|-----------|| 
D|-5----------------8--8--7-|------------------5--5--4-|-5----------------8--8--7-|-8--3--2---|| 
A|-7----------------8--8--7-|------------------7--7--6-|-7----------------8--8--7-|-8--3--2---|| 
E|----0-0-0--0-0-0--6--6--5-|-0--0-0-0--0-0-0----------|----0-0-0--0-0-0--6--6--5-|-6--1--0---|| 

Guitar I - James 
E|-------|-------|-------------|| 
B|-------|-------|-------------|| 
G|-------|-------|-------------|| 
D|--2----|--5----|--7--------4-|| 
A|--2----|--5----|--7--------6-|| 
E|--0----|--3----|--5---0-0----|| 


Guitar II  Kirk 
E|--------12--17-12-15-12-14----12-17-12-15-12-|-14-12----12-17-12-15-12-14-12----12-17-12-15-12-|| 
B|-15b17---------------------15----------------|-------15----------------------15----------------|| 
G|---------------------------------------------|-------------------------------------------------|| 
D|---------------------------------------------|-------------------------------------------------|| 
A|---------------------------------------------|-------------------------------------------------|| 
E|---------------------------------------------|-------------------------------------------------|| 

E|-14-12---------------------------------------|------------------------------|| 
B|-------14-12-14-12---------------------------|------------------------------|| 
G|-------------------14-12---------------14b16-|-12\x-------------------------|| 
D|-------------------------14-12-12------14b16-|------------------------------|| 
A|-----------------------------------14--------|------------------------------|| 
E|---------------------------------------------|------------------------------|| 


2nd Verse 
E|--------------------------|--------------------------|| 
B|--------------------------|--------------------------|| 
G|--------------------------|--------------------------|| 
D|-5----------------8--8--7-|------------------5--5--4-|| 
A|-7----------------8--8--7-|------------------7--7--6-|| 
E|----0-0-0--0-0-0--6--6--5-|-0--0-0-0--0-0-0----------|| 

E|--------------------------|-------------------|| 
B|--------------------------|-------------------|| 
G|--------------------------|-------------------|| 
D|-5----------------8--8--7-|----4--5-----5--6--|| 
A|-7----------------8--8--7-|----4--5-----5--6--|| 
E|----0-0-0--0-0-0--6--6--5-|-0--2--3--0--3--4--|| 

E|--------------------------|--------------------------|| 
B|--------------------------|--------------------------|| 
G|--------------------------|--------------------------|| 
D|-5----------------8--8--7-|------------------5--5--4-|| 
A|-7----------------8--8--7-|------------------7--7--6-|| 
E|----0-0-0--0-0-0--6--6--5-|-0--0-0-0--0-0-0----------|| 

E|--------------------------|-------------------|| 
B|--------------------------|-------------------|| 
G|--------------------------|-------------------|| 
D|-5----------------8--8--7-|----4--5-----5--6--|| 
A|-7----------------8--8--7-|----4--5-----5--6--|| 
E|----0-0-0--0-0-0--6--6--5-|-0--2--3--0--3--4--|| 

Chorus 
E|-------|-------|--------------|--------------------------|--------------------------|| 
B|-------|-------|--------------|--------------------------|--------------------------|| 
G|-------|-------|--------------|--------------------------|--------------------------|| 
D|--2----|--5----|--7---------4-|-5----------------8--8--7-|------------------5--5--4-|| 
A|--2----|--5----|--7---------6-|-7----------------8--8--7-|------------------7--7--6-|| 
E|--0----|--3----|--5----0-0----|----0-0-0--0-0-0--6--6--5-|-0--0-0-0--0-0-0----------|| 

E|--------------------------|-------------------|-------|-------|--------------|| 
B|--------------------------|-------------------|-------|-------|--------------|| 
G|--------------------------|-------------------|-------|-------|--------------|| 
D|-5----------------8--8--7-|----4--5-----5--6--|--2----|--5----|--7---------4-|| 
A|-7----------------8--8--7-|----4--5-----5--6--|--2----|--5----|--7---------6-|| 
E|----0-0-0--0-0-0--6--6--5-|-0--2--3--0--3--4--|--0----|--3----|--5----0-0----|| 

E|--------------------------|--------------------------|---------|------------|| 
B|--------------------------|--------------------------|---------|------------|| 
G|--------------------------|--------------------------|------4--|------------|| 
D|-5----------------8--8--7-|------------------5--5--4-|--2---4--|--5----5--4-|| 
A|-7----------------8--8--7-|------------------7--7--6-|--2---2--|--5----7--6-|| 
E|----0-0-0--0-0-0--6--6--5-|-0--0-0-0--0-0-0----------|--0------|--3---------|| 

E|--------------------------|--------------------------|--------------------------------|| 
B|--------------------------|--------------------------|--------------------------------|| 
G|--------------------------|--------------------------|--------------------------------|| 
D|-5----------------8--8--7-|------------------5--5--4-|-5----------------8--8----------|| 
A|-7----------------8--8--7-|------------------7--7--6-|-7----------------8--8--0--1----|| 
E|----0-0-0--0-0-0--6--6--5-|-0--0-0-0--0-0-0----------|----0-0-0--0-0-0--6--6--------1-|| 

E|--------------------------|--------------------------|--------------------------|-----------|| 
B|--------------------------|--------------------------|--------------------------|-----------|| 
G|--------------------------|--------------------------|--------------------------|-----------|| 
D|-5----------------8--8--7-|------------------5--5--4-|-5----------------8--8--7-|-8--3--2---|| 
A|-7----------------8--8--7-|------------------7--7--6-|-7----------------8--8--7-|-8--3--2---|| 
E|----0-0-0--0-0-0--6--6--5-|-0--0-0-0--0-0-0----------|----0-0-0--0-0-0--6--6--5-|-6--1--0---|| 

E|-----|-----|-----|-----|-----|---------|----|-----|----|-----------|| 
B|-----|-----|-----|-----|-----|---------|----|-----|----|-----------|| 
G|-----|-----|-----|-----|-----|---------|----|-----|----|--4--4-----|| 
D|--2--|-(2)-|--2--|-(2)-|--5--|-5-----5-|-2--|-(2)-|-5--|--4--4-----|| 
A|--2--|-(2)-|--2--|-(2)-|--5--|-5-----5-|-2--|-(2)-|-5--|--2--2-----|| 
E|--0--|-(0)-|--0--|-(0)-|--3--|-3---3-3-|-0--|-(0)-|-3--|-----------|| 

Solo 
Guitar I  James 
E|----------|----------|----------|---------------------|| 
B|----------|----------|----------|---------------------|| 
G|----------|-----5--7-|----------|---------------------|| 
D|-2--------|-2---5--7-|-5--------|---------------------|| 
A|-2--------|-2---3--5-|-5--------|----------0--0--0--0-|| 
E|-0---0--0-|-0--------|-3---3--3-|-3--3--3-------------|| 

E|----------|----------|----------|---------------------|| 
B|----------|----------|----------|---------------------|| 
G|----------|-----5--7-|----------|---------------------|| 
D|-2--------|-2---5--7-|-5--------|---------------------|| 
A|-2--------|-2---3--5-|-5--------|----------0--0--0--0-|| 
E|-0---0--0-|-0--------|-3---3--3-|-3--3--3-------------|| 

E|----------|----------|----------|---------------------|| 
B|----------|----------|----------|---------------------|| 
G|----------|-----5--7-|----------|---------------------|| 
D|-2--------|-2---5--7-|-5--------|---------------------|| 
A|-2--------|-2---3--5-|-5--------|----------0--0--0--0-|| 
E|-0---0--0-|-0--------|-3---3--3-|-3--3--3-------------|| 

E|----------|----------|------|-----|------------------|| 
B|----------|----------|------|-----|------------------|| 
G|----------|----------|------|-----|------------------|| 
D|-2--------|----------|-5----|-(5)-|-8--7---7---7---7-|| 
A|-2--------|--------3-|-5----|-(5)-|-8--7---7---7---7-|| 
E|-0---0--0-|-0---3----|-3----|-(3)-|-6--5---5---5---5-|| 

E|--------------------------|------------------------|| 
B|--------------------------|------------------------|| 
G|--------------------------|------------------------|| 
D|---------------------8--7-|-------8--7--------8--7-|| 
A|---------------------8--7-|-------8--7--------8--7-|| 
E|-0--0-0-0--0-0-0--7--6--5-|-0--7--6--5--0--7--6--5-|| 


E|--------------------------|------------------------|| 
B|--------------------------|------------------------|| 
G|--------------------------|------------------------|| 
D|---------------------8--7-|-------8--7-------------|| 
A|---------------------8--7-|-------8--7-------------|| 
E|-0--0-0-0--0-0-0--7--6--5-|-0--7--6--5--0--3--2--2-|| 

E|--------------------------|------------------------|| 
B|--------------------------|------------------------|| 
G|--------------------------|------------------------|| 
D|---------------------8--7-|-------8--7--------8--7-|| 
A|---------------------8--7-|-------8--7--------8--7-|| 
E|-0--0-0-0--0-0-0--7--6--5-|-0--7--6--5--0--7--6--5-|| 

E|--------------------------|------------------|| 
B|--------------------------|------------------|| 
G|--------------------------|------------------|| 
D|---------------------8--7-|-8--7---7---7---7-|| 
A|---------------------8--7-|-8--7---7---7---7-|| 
E|-0--0-0-0--0-0-0--7--6--5-|-6--5---5---5---5-|| 

E|--------------------------|------------------------|| 
B|--------------------------|------------------------|| 
G|--------------------------|------------------------|| 
D|---------------------8--7-|-------8--7--------8--7-|| 
A|---------------------8--7-|-------8--7--------8--7-|| 
E|-0--0-0-0--0-0-0--7--6--5-|-0--7--6--5--0--7--6--5-|| 

E|--------------------------|------------------------|| 
B|--------------------------|------------------------|| 
G|--------------------------|------------------------|| 
D|---------------------8--7-|-------8--7-------------|| 
A|---------------------8--7-|-------8--7-------------|| 
E|-0--0-0-0--0-0-0--7--6--5-|-0--7--6--5--0--3--2--2-|| 

E|--------------------------|------------------------|| 
B|--------------------------|------------------------|| 
G|--------------------------|------------------------|| 
D|---------------------8--7-|-------8--7--------8--7-|| 
A|---------------------8--7-|-------8--7--------8--7-|| 
E|-0--0-0-0--0-0-0--7--6--5-|-0--7--6--5--0--7--6--5-|| 

E|--------------------------|------------------|| 
B|--------------------------|------------------|| 
G|--------------------------|------------------|| 
D|---------------------8--7-|-8--7---7---7---7-|| 
A|---------------------8--7-|-8--7---7---7---7-|| 
E|-0--0-0-0--0-0-0--7--6--5-|-6--5---5---5---5-|| 

E|-----|-----|-----|-----|-----|-----|-----|-------|| 
B|-----|-----|-----|-----|-----|-----|-----|-------|| 
G|-----|-----|-----|-----|-----|-----|-----|-------|| 
D|-2---|-5---|-7---|-4---|-2---|-5---|-7---|---5-4-|| 
A|-2---|-5---|-7---|-4---|-2---|-5---|-7---|---5-4-|| 
E|-0---|-3---|-5---|-2---|-0---|-3---|-5---|---3-2-|| 

Guitar II - Kirk 
E|------------------------|------------------------|------------------------|----------------------|| 
B|------------------------|------------------------|------------------------|----------------------|| 
G|------------------------|------------------------|------------------------|----------------------|| 
D|-------4--5-------------|-------5----------------|-------4--5-------------|-------5-----4--5--7~-|| 
A|-7-----------7--------7-|----------7--3--3--5--7-|-7-----------7--------7-|----------7-----------|| 
E|----7-----------0--0----|-0--0-------------------|----0-----------0--0----|-0--0-----------------|| 

E|------------------------|------------------------|------------------------|----------------------|| 
B|------------------------|------------------------|------------------------|----------------------|| 
G|------------------------|------------------------|------------------------|----------------------|| 
D|-------4--5-------------|-------5----------------|-------4--5-------------|-------5-----4--5--7~-|| 
A|-7-----------7--------7-|----------7--3--3--5--7-|-7-----------7--------7-|----------7-----------|| 
E|----7-----------0--0----|-0--0-------------------|----0-----------0--0----|-0--0-----------------|| 

E|------------------------|------------------------|------------------------|----------------------|| 
B|------------------------|------------------------|------------------------|----------------------|| 
G|------------------------|------------------------|------------------------|----------------------|| 
D|-------4--5-------------|-------5----------------|-------4--5-------------|-------5-----4--5--7~-|| 
A|-7-----------7--------7-|----------7--3--3--5--7-|-7-----------7--------7-|----------7-----------|| 
E|----7-----------0--0----|-0--0-------------------|----0-----------0--0----|-0--0-----------------|| 

E|------------------------|------------------------|-----|-----|----------------|| 
B|------------------------|----------------------4/|7----|-(7)-|----------------|| 
G|------------------------|------------------------|-----|-----|----------------|| 
D|-------4--5-------------|------------------------|-----|-----|----------------|| 
A|-7-----------7----------|-7----------------------|-----|-----|----------------|| 
E|----0-----------0--0--0-|-------7----------------|-----|-----|----------------|| 

E|-------------------|-----------------------|---------------------------------------|| 
B|-14b16-14b16-14b16-|-14b16-----------------|--------12-15-12-15-12-12--15-12-12----|| 
G|-14b16-14b16-14b16-|-14b16--14~--14--12-14-|-12--14-----------------------------15-|| 
D|-------------------|-----------------------|---------------------------------------|| 
A|-------------------|-----------------------|---------------------------------------|| 
E|-------------------|-----------------------|---------------------------------------|| 

E|---------------------------------|-15b18-|-15b18r15-12~-12-15-12-------12-|| 
B|-12-15-12----12-15-12--15--15b17-|-------|-----------------------15-12----|| 
G|----------14---------------------|-------|--------------------------------|| 
D|---------------------------------|-------|--------------------------------|| 
A|---------------------------------|-------|--------------------------------|| 
E|---------------------------------|-------|--------------------------------|| 

E|-12-------------------------------------------|------------------|| 
B|-----12-15-12-----12-15-12-----12-15-12----12-|-15-12--15-15b17~-|| 
G|---------------14-----------14----------15----|------------------|| 
D|----------------------------------------------|------------------|| 
A|----------------------------------------------|------------------|| 
E|----------------------------------------------|------------------|| 

E|-------------------------------------|----------------------------------------|| 
B|-------------------------------------|----------------------------------------|| 
G|-4-2-0-4-2-0-4-2-0-4-----4-2-0-4---4-|-2-0-4-2-0-4-2-0-2-0--4-2-0-4-2-0-4-2-0-|| 
D|----------------------0----------0---|----------------------------------------|| 
A|-------------------------------------|----------------------------------------|| 
E|-------------------------------------|----------------------------------------|| 

E|-------------------------------------|------------------------12-|| 
B|-------------------------------------|------------------------13-|| 
G|-4-2-0-3-0-6-0-7-5-0-8-6-0-10-0-10-0-|-11-0-13-0-11-0--14--X-----|| 
D|-------------------------------------|---------------------------|| 
A|-------------------------------------|---------------------------|| 
E|-------------------------------------|---------------------------|| 

E|-15--14--12-14-12----12------------------|-------------------------|-------------------------|| 
B|------------------15----15--12-14--12-14-|-12----------------------|-------------------------|| 
G|-----------------------------------------|----14-12----------------|----------------12-------|| 
D|-----------------------------------------|----------14-12----------|----------12-14----12----|| 
A|-----------------------------------------|----------------14-13-14-|-10-11-14-------------14-|| 
E|-----------------------------------------|-------------------------|-------------------------|| 

E|-------------------|-------------------|---------------------------|| 
B|-------------------|-----7-10b12--10-8-|-7-----7--8--7-8-7---------|| 
G|-------------------|---7---------------|----9--------------9--7--6-|| 
D|-12-14-12-14~---X--|-9-----------------|---------------------------|| 
A|-------------------|-------------------|---------------------------|| 
E|-------------------|-------------------|---------------------------|| 

E|--------------------|---------------|---------------------------|----15b17~--15-12-15-12--|| 
B|--------------------|---------------|-------12-15b17---15-12----|-12----------------------|| 
G|-7--7b9--7--6--4--7-|-6-------------|----12------------------14-|-------------------------|| 
D|--------------------|----7--6--7b9~-|-14------------------------|-------------------------|| 
A|--------------------|---------------|---------------------------|-------------------------|| 
E|--------------------|---------------|---------------------------|-------------------------|| 

E|-19-20-15-------------14-14----------|----------------------------|| 
B|-------------------------------------|----------------------------|| 
G|----------17-16-14-16-------16-14-12-|-14-12-11-12---0------------|| 
D|-------------------------------------|--------------------14---x--|| 
A|-------------------------------------|--------------------14---x--|| 
E|-------------------------------------|----------------------------|| 

Two Guitars 
E|-----------------|---------------|-----------------|---------------|| 
B|-----------------|---------------|-----------------|---------------|| 
G|-----3---4---3---|-4---3---4-----|-----3---4---3---|-4---3---4-----|| 
D|-3---3---4---3---|-4---3---4---4-|-3---3---4---3---|-4---3---4---4-|| 
A|-3---1---2---1---|-2---1---2---4-|-3---1---2---1---|-2---1---2---4-|| 
E|-1-0---0---0---0-|---0---0---0-2-|-1-0---0---0---0-|---0---0---0-2-|| 

E|-----------------|---------------|-----------------|---------------|---------|------------|| 
B|-----------------|---------------|-----------------|---------------|---------|------------|| 
G|-----3---4---3---|-4---3---4-----|-----3---4---3---|-4---3---4-----|---------|------------|| 
D|-3---3---4---3---|-4---3---4---4-|-3---3---4---3---|-4---3---4---4-|-3-------|----------4-|| 
A|-3---1---2---1---|-2---1---2---4-|-3---1---2---1---|-2---1---2---4-|-3-------|----------6-|| 
E|-1-0---0---0---0-|---0---0---0-2-|-1-0---0---0---0-|---0---0---0-2-|-1-------|----1--1----|| 

3rd Verse 
E|--------------------------|--------------------------|| 
B|--------------------------|--------------------------|| 
G|--------------------------|--------------------------|| 
D|-5----------------8--8--7-|------------------5--5--4-|| 
A|-7----------------8--8--7-|------------------7--7--6-|| 
E|----0-0-0--0-0-0--6--6--5-|-0--0-0-0--0-0-0----------|| 

E|--------------------------|-------------------|| 
B|--------------------------|-------------------|| 
G|--------------------------|-------------------|| 
D|-5----------------8--8--7-|----4--5-----5--6--|| 
A|-7----------------8--8--7-|----4--5-----5--6--|| 
E|----0-0-0--0-0-0--6--6--5-|-0--2--3--0--3--4--|| 

E|--------------------------|--------------------------|| 
B|--------------------------|--------------------------|| 
G|--------------------------|--------------------------|| 
D|-5----------------8--8--7-|------------------5--5--4-|| 
A|-7----------------8--8--7-|------------------7--7--6-|| 
E|----0-0-0--0-0-0--6--6--5-|-0--0-0-0--0-0-0----------|| 

E|--------------------------|-------------------|| 
B|--------------------------|-------------------|| 
G|--------------------------|-------------------|| 
D|-5----------------8--8--7-|----4--5-----5--6--|| 
A|-7----------------8--8--7-|----4--5-----5--6--|| 
E|----0-0-0--0-0-0--6--6--5-|-0--2--3--0--3--4--|| 


Chorus 
E|-------|-------|--------------|--------------------------|--------------------------|| 
B|-------|-------|--------------|--------------------------|--------------------------|| 
G|-------|-------|--------------|--------------------------|--------------------------|| 
D|--2----|--5----|--7---------4-|-5----------------8--8--7-|------------------5--5--4-|| 
A|--2----|--5----|--7---------6-|-7----------------8--8--7-|------------------7--7--6-|| 
E|--0----|--3----|--5----0-0----|----0-0-0--0-0-0--6--6--5-|-0--0-0-0--0-0-0----------|| 

E|--------------------------|-------------------|-------|-------|--------------|| 
B|--------------------------|-------------------|-------|-------|--------------|| 
G|--------------------------|-------------------|-------|-------|--------------|| 
D|-5----------------8--8--7-|----4--5-----5--6--|--2----|--5----|--7---------4-|| 
A|-7----------------8--8--7-|----4--5-----5--6--|--2----|--5----|--7---------6-|| 
E|----0-0-0--0-0-0--6--6--5-|-0--2--3--0--3--4--|--0----|--3----|--5----0-0----|| 

E|--------------------------|--------------------------|---------|------------|| 
B|--------------------------|--------------------------|---------|------------|| 
G|--------------------------|--------------------------|------4--|------------|| 
D|-5----------------8--8--7-|------------------5--5--4-|--2---4--|--5----5--4-|| 
A|-7----------------8--8--7-|------------------7--7--6-|--2---2--|--5----7--6-|| 
E|----0-0-0--0-0-0--6--6--5-|-0--0-0-0--0-0-0----------|--0------|--3---------|| 

E|--------------------------|--------------------------|--------------------------------|| 
B|--------------------------|--------------------------|--------------------------------|| 
G|--------------------------|--------------------------|--------------------------------|| 
D|-5----------------8--8--7-|------------------5--5--4-|-5----------------8--8----------|| 
A|-7----------------8--8--7-|------------------7--7--6-|-7----------------8--8--0--1----|| 
E|----0-0-0--0-0-0--6--6--5-|-0--0-0-0--0-0-0----------|----0-0-0--0-0-0--6--6--------1-|| 

E|--------------------------|--------------------------|--------------------------|-------|| 
B|--------------------------|--------------------------|--------------------------|-------|| 
G|--------------------------|--------------------------|--------------------------|-------|| 
D|-5----------------8--8--7-|------------------5--5--4-|-5----------------8--8--7-|-8--3--|| 
A|-7----------------8--8--7-|------------------7--7--6-|-7----------------8--8--7-|-8--3--|| 
E|----0-0-0--0-0-0--6--6--5-|-0--0-0-0--0-0-0----------|----0-0-0--0-0-0--6--6--5-|-6--1--|| 

End Chorus 
E|--------------------------|--------------------------|| 
B|--------------------------|--------------------------|| 
G|--------------------------|--------------------------|| 
D|-5----------------8--8--7-|------------------5--5--4-|| 
A|-7----------------8--8--7-|------------------7--7--6-|| 
E|----0-0-0--0-0-0--6--6--5-|-0--0-0-0--0-0-0----------|| 

E|--------------------------------|--------------------------|--------------------------|| 
B|--------------------------------|--------------------------|--------------------------|| 
G|--------------------------------|--------------------------|--------------------------|| 
D|-5----------------8--8----------|------------------8--8--7-|------------------5--5--4-|| 
A|-7----------------8--8--0--1----|------------------8--8--7-|------------------7--7--6-|| 
E|----0-0-0--0-0-0--6--6--------1-|-0--0-0-0--0-0-0--6--6--5-|-0--0-0-0--0-0-0----------|| 

E|--------------------------|-----------|| 
B|--------------------------|-----------|| 
G|--------------------------|-----------|| 
D|-5----------------8--8--7-|-8--3--2---|| 
A|-7----------------8--8--7-|-8--3--2---|| 
E|----0-0-0--0-0-0--6--6--5-|-6--1--0---|| 

E|-----------------|---------------|-----------------|---------------|| 
B|-----------------|---------------|-----------------|---------------|| 
G|-----3---4---3---|-4---3---4-----|-----3---4---3---|-4---3---4-----|| 
D|-3---3---4---3---|-4---3---4---4-|-3---3---4---3---|-4---3---4---4-|| 
A|-3---1---2---1---|-2---1---2---4-|-3---1---2---1---|-2---1---2---4-|| 
E|-1-0---0---0---0-|---0---0---0-2-|-1-0---0---0---0-|---0---0---0-2-|| 


E|-----------------|---------------|-----------------|---------------|| 
B|-----------------|---------------|-----------------|---------------|| 
G|-----3---4---3---|-4---3---4-----|-----3---4---3---|-4---3---4-----|| 
D|-3---3---4---3---|-4---3---4---4-|-3---3---4---3---|-4---3---4---4-|| 
A|-3---1---2---1---|-2---1---2---4-|-3---1---2---1---|-2---1---2---4-|| 
E|-1-0---0---0---0-|---0---0---0-2-|-1-0---0---0---0-|---0---0---0-2-|| 

E|-----------------|---------------|-----------------|---------------|| 
B|-----------------|---------------|-----------------|---------------|| 
G|-----3---4---3---|-4---3---4-----|-----3---4---3---|-4---3---4-----|| 
D|-3---3---4---3---|-4---3---4---4-|-3---3---4---3---|-4---3---4---4-|| 
A|-3---1---2---1---|-2---1---2---4-|-3---1---2---1---|-2---1---2---4-|| 
E|-1-0---0---0---0-|---0---0---0-2-|-1-0---0---0---0-|---0---0---0-2-|| 

E|-----------------|-----------|-----|----------------|-------|| 
B|-----------------|-----------|-----|----------------|-------|| 
G|-----3---4---3---|-4---------|-(4)-|----------------|-------|| 
D|-3---3---4---3---|-4---------|-(4)-|-4--3---3--3--3-|-2-----|| 
A|-3---1---2---1---|-2---------|-(2)-|-4--3---3--3--3-|-2-----|| 
E|-1-0---0---0---0-|-----------|-----|-2--1---1--1--1-|-0-----|| 
	  

Search Paypal
auto scroll beats size up size down change color hide chords drawings
tab show chords e-chords YouTube Clip e-chords hide all tabs e-chords go to top tab