Metallica

home > Metallica

Seek and destroy (intro) Tab

Metallica

Difficulty: ExpertExpert

by steelersfan123

tuner correct add songbook print version text version save to e-mail
chordsukulelecavacokeyboardtabbassdrumsharmonicsflute Guitar Pro
chords

Seek and destroy (intro)

  		seek n desrtoy by Metallica 
 
guitarist: kirk hammet  
           james hetfeild 
 
 
intro: 
 
e|----------------------------------| 
b|----------------------------------| 
g|--8-7------------------5----------|x8 
D|------8-7----------------7--------| 
A|------------------5-7-------------| 
E|-----------0--5-8-----------------| 
              PM........ 
 
 
this parts the little lick  
e|-------------------------| 
b|-------------------------| 
g|-------7-5---5-----------| 
D|-----------7---7-6-5p----| 
A|-------------------------| 
E|-------------------------| 
 
pre verse: 
 
     
e|----------------------------------------------| 
b|----------------------------------------------| 
g|----------------------------------------------|play this  
D|--2-2-2-2---4/5/4/5---2-2-2-2-----------------|like 10 times 
A|--0-0-0-0---2/3/2/3---0-0 0-0------7-6-5p-----| 
E|----------------------------------------------| 
  PM.......          PM........ 
 
verse: 
 
e|------------------------------------------------------| 
b|------------------------------------------------------| 
g|----------------------------------------5--2----------| 
D|--2-2-2-2-2-2-2-2-2-2-2-2-2-2-------------------------| 
A|--0-0-0-0-0-0-0-0-0-0-0-0-0-0-----3-0-----------------| 
E|------------------------------------------------------| 
   PM.......................... 
 
and i dont no the Chorus but its mainly all chords so it would be  
easy to figure out  

	  

Search Paypal
auto scroll beats size up size down change color hide chords drawings
tab show chords e-chords YouTube Clip e-chords hide all tabs e-chords go to top tab