Metallica

home > Metallica

Master of Puppets (Main Riffs) Tab

Metallica

Difficulty: ExpertExpert

by Loganizer

tuner correct add songbook print version text version save to e-mail
chordsukulelecavacokeyboardtabbassdrumsharmonicsflute Guitar Pro
chords

Master of Puppets (Main Riffs)

  		Símbolos: 
/ -> Desliza até 
^ -> Treme 

------------------------------------------- 

Sempre tocar no compasso da música. Leva algum 
tempo até ganhar velocidade. 

Introdução: 

e|----------| 
B|----------| 
G|----------| 
D|-9--7-6-5-| 
A|-7--5-4-3-| 
E|-0--------| 

e|-----------------------|  
B|-----------------------| 
G|-----------------------| 
D|----------------7-6-5--|  Repetir esse riff 3x 
A|------7-----6---5-4-3--| 
E|--0-0---0-0------------| 

e|-------------------------| 
B|-------------------------| 
G|-------------------------| 
D|-------------------------| Repetir esse riff 10x. 
A|-----2----3---4---3---2-2| 
E|-0-1---1----1---1---1----| 

Durante algumas partes, o riff acima é acompanha o seguinte: 

e|-----------------------| 
B|-----------------------| 
G|-----------------------| 
D|-----------------------| 
A|--5/4-----5/4-----5/4--| 
E|--2/3--0--2/3--0--2/3--| 

Abaixo é indicado o fim da abertura da música e início do Riff Principal: 

e|-----------------------| 
B|-----------------------| 
G|-----------------------| 
D|-------8----8----8-8^--| 
A|---7-7--7-7--7-7-------| 
E|-----------------------| 

Riff principal: 

e|---------------------------------------------| 
B|---------------------------------------------| 
G|---------------------------------------------| 
D|---------------------------------------------| 
A|---------------5/7--8/7---------------5/7-5/7| 
E|-0-0-0-0-0-0-0-3/5--6/5-0-0-0-0-0-0-0-3/5-3/5| 

Pré-Refrão: 

e|-------------------------------------------| 
B|-------------------------------------------| 
G|-------------------------------------------| 
D|----------------------2-4-5/4-2-4--2-4-2-4-| 
A|----------------------0-2-3/2-0-2--0-2-0-2-| 
E|-2-2-2-2-2-2-2-2-2-2-----------------------| 

Refrão: 

e|-------------------------------------------| 
B|-------------------------------------------| 
G|-------------------------------------------| 
D|-9-9-9-9-9-9-9-9---------------------------| 
A|-7-7-7-7-7-7-7-7---------------------------| 
E|-------------------------------------------| 

e|-------------------------------------------| 
B|-------------------------------------------| 
G|-------------------------------------------| 
D|-7-----7-9---------------------------------| 
A|-9-----5-7-7-9-10-9-10-10-----------11-10--| 
E|-0-0-0--------------------8-8-8-8-8-9--8---| 

e|-------------------------------------------| 
B|-------------------------------------------| 
G|-------------------------------------------| 
D|---------8----2-2-----------------------5--| 
A|---------6-9--2-2-3-3-2-------4-------5-3--| 
E|-8-8-8-8---7--0-0-1-1-0-0-0-0-2-0-0-0-3----| 

e|-------------------------------------------| 
B|-------------------------------------------| 
G|-------------------------------------------| 
D|-------4-------2-7-------5-------4---------| 
A|-0-0-0-2-0-0-0-0-5-0-0-0-3-0-0-0-2-2-------| 
E|-----------------------------------0-------| 

e|-------------------------------------------| 
B|-------------------------------------------| 
G|-------------------------------------------| 
D|--------------5-------------------------5--| 
A|-------5------3-2-2-3-3-2-------5-------3--| 
E|-0-0-0-3-0-0-0--0-0-1-1-0-0-0-0-3-0-0-0----| 

e|-------------------------------------------| 
B|-------------------------------------------| 
G|-------------------------------------------| 
D|--------------------------5----------------| 
A|-2-2-3-3--2-------5-------3-2-2-3-3--------| 
E|-0-0-1-1--0-0-0-0-3-0-0-0---0-0-1-1--------| 

Bom, tá aí só os riffs principais. Hora ou outra eu tiro 
o solo e ponho as tabs aqui xD. 

	  

Search Paypal
auto scroll beats size up size down change color hide chords drawings
tab show chords e-chords YouTube Clip e-chords hide all tabs e-chords go to top tab