Metallica

home > Metallica

Kirk E Jason Solos Tab

Metallica

Difficulty: nolevelnolevel

by Hetfield2

tuner correct add songbook print version text version save to e-mail
chordsukulelecavacokeyboardtabbassdrumsharmonicsflute Guitar Pro
chords

Kirk E Jason Solos

  		G|--------------------|--------------------|--------------------|--------------------|| 
D|------7-7--5-5--2-2-|------7-7--5-5--2-2-|------7-7--5-5--2-2-|------7-7--5-5--2-2-|| 
A|-0-0----------------|-0-0----------------|-0-0----------------|-0-0----------------|| 
E|--------------------|--------------------|--------------------|--------------------|| 

G|------7-7--5-5--2-2-|------7-7--5-5--2-2-|--------------------|---------------------|| 
D|-0-0----------------|-0-0----------------|------7-7--5-5--2-2-|------7-7--5-5--2-2--|| 
A|--------------------|--------------------|-0-0----------------|-0-0-----------------|| 
E|--------------------|--------------------|--------------------|---------------------|| 

G|--------------------|------7-7--5-5--2-2-|--------------------|---------------5-|| 
D|--------------------|-0-0----------------|----------------5-5-|-----------------|| 
A|------7-7--5-5--2-2-|--------------------|-0-0--5-5--6-6------|-0-7-7-7-7-7-7---|| 
E|-0-0----------------|--------------------|--------------------|-----------------|| 

G|--------------------|--------------------|--------------------|--------------------|| 
D|------7-7--5-5--2-2-|------7-7--5-5--2-2-|------7-7--5-5--2-2-|------7-7--5-5--2-2-|| 
A|-0-0----------------|-0-0----------------|-0-0----------------|-0-0----------------|| 
E|--------------------|--------------------|--------------------|--------------------|| 

G|------7-7--5-5--2-2-|------7-7--5-5--2-2-|--------------------|--------------------|| 
D|-0-0----------------|-0-0----------------|------7-7--5-5--2-2-|------7-7--5-5--2-2-|| 
A|--------------------|--------------------|-0-0----------------|-0-0----------------|| 
E|--------------------|--------------------|--------------------|--------------------|| 

G|--------------------|------7-7--5-5--2-2-|--------------------|------------------|| 
D|--------------------|-0-0----------------|----------------5-5-|---------------5--|| 
A|------7-7--5-5--2-2-|--------------------|-0-0--5-5--6-6------|-0-7-7-7-7-7-7----|| 
E|-0-0----------------|--------------------|--------------------|------------------|| 

G|--------------------|--------------------|--------------------|--------------------|| 
D|------7-7--5-5--2-2-|------7-7--5-5--2-2-|------7-7--5-5--2-2-|------7-7--5-5--2-2-|| 
A|-0-0----------------|-0-0----------------|-0-0----------------|-0-0----------------|| 
E|--------------------|--------------------|--------------------|--------------------|| 

G|--------------------|------7-7--5-5--2-2-|------7-7--5-5--2-2-|--------------------|| 
D|------7-7--5-5--2-2-|-0-0----------------|-0-0----------------|------7-7--5-5--2-2-|| 
A|-0-0----------------|--------------------|--------------------|-0-0----------------|| 
E|--------------------|--------------------|--------------------|--------------------|| 

G|------7-7--5-5--2-2-|------7-7--5-5--2-2-|--------------------|--------------------|| 
D|-0-0----------------|-0-0----------------|------7-7--5-5--2-2-|------7-7--5-5--2-2-|| 
A|--------------------|--------------------|-0-0----------------|-0-0----------------|| 
E|--------------------|--------------------|--------------------|--------------------|| 




G|--------------------|------7-7--5-5--2-2-|--------------------|-----------------|| 
D|--------------------|-0-0----------------|----------------5-5-|---------------5-|| 
A|------7-7--5-5--2-2-|--------------------|-0-0--5-5--6-6------|-0-7-7-7-7-7-7---|| 
E|-0-0----------------|--------------------|--------------------|-----------------|| 

G|----------7--13~~~~-|-------|| 
D|-------6------------|-------|| 
A|----7---------------|--0----|| 
E|-0------------------|-------|| 

Kirk - Guitar 
E|----------------------------|-----------------------------|----------------------------|| 
B|----------------------------|-----------------------------|----------------------------|| 
G|-----------------------7--5-|------------------------7--5-|---------------5-------7--5-|| 
D|-------7-------5-------7--5-|-7p5---5-7-------5------7--5-|-------7-------5-------7--5-|| 
A|-0--0-----0-0-----0-0-------|-----7-------0-0----0-0------|-0--0-----0-0-----0-0-------|| 
E|----------------------------|-----------------------------|----------------------------|| 

E|------------------------------------|| 
B|------------------------------------|| 
G|-------------------------7----------|| 
D|-7p5---5-7-------5-------7---5\-----|| 
A|-----7------0-0-----0-0-------------|| 
E|------------------------------------|| 

E|----------------------------------|---------------------------------------|| 
B|----------------------------------|---------------------------------------|| 
G|---------------------------12-----|---------------------------------------|| 
D|-\0--0--12--12-10-10-------12--10-|-12p10----10-12-------10------12---10\-|| 
A|----------------------0-0---------|-------12--------0-0-----0-0--12---10\-|| 
E|----------------------------------|---------------------------------------|| 

E|---------------------------|------------------------------|| 
B|---------------------------|------------------------------|| 
G|----------------------7--5-|-------------------------7--5-|| 
D|-------7-------5------7--5-|-7p5---5-7-------5-------7--5-|| 
A|-0--0-----0-0-----0-0------|-----7------0-0-----0-0-------|| 
E|---------------------------|------------------------------|| 

E|------------------------------------|-----------------------------|-------------------|| 
B|--------14----12~~------------------|-14----12~~------------------|-------------------|| 
G|--------14----12~~-14---12h14p12h14-|-14----12~~-14---12h14p12h14-|----------------5--|| 
D|--------14----12~~------------------|-14----12~~------------------|-------------5--5--|| 
A|-12---------------------------------|-----------------------------|-0-0-5-5-6-6-------|| 
E|-----0------------------------------|-----------------------------|-------------------|| 

E|--------------------------|-----------------------------------|---------------------------|| 
B|----8--8--8--8--8--8------|-----------------------------------|---------------------------|| 
G|----7--7--7--7--7--7--(5)-|-7b9--7p5----5--(5)br--7b9r7-(5)p5-|-x-x---7b9--7p5----5---7b9-|| 
D|----6--6--6--6--6--6------|----------7------------------------|-x-x------------7----------|| 
A|-0--7--7--7--7--7--7------|-----------------------------------|---------------------------|| 
E|--------------------------|-----------------------------------|---------------------------|| 

E|-------5---------------------5------------|---------------------------------|--------------|| 
B|-----------8p5-----5--8p5-------8p5--5--5-|-8p5-----------------------------|--------------|| 
G|-(7)------------8---------7---------------|------7--5------5--7p5---------5-|--7b-7b-7b-7b-|| 
D|------------------------------------------|------------7-----------5~--7----|--------------|| 
A|------------------------------------------|---------------------------------|--------------|| 
E|------------------------------------------|---------------------------------|--------------|| 








E|----------------------------|----------------------------------|----10b12-----------------------|| 
B|--------------------------8-|--10b12--10b12~~--10p8------8--10-|-8--------10b12r10p8----------8-|| 
G|-7b10----5p7--5~~------9----|------------------------9---------|----------------------9~~--9----|| 
D|-------------------(7)------|----------------------------------|--------------------------------|| 
A|----------------------------|----------------------------------|--------------------------------|| 
E|----------------------------|----------------------------------|--------------------------------|| 

E|------------------------------|-5----------------------------------------|| 
B|-10p8-------------------------|-----8----5----------5------------5--5--5-|| 
G|-------9----7\5-------5---7b--|---------------7b9-------5---7b9----------|| 
D|------------------7-----------|------------------------------------------|| 
A|------------------------------|------------------------------------------|| 
E|------------------------------|------------------------------------------|| 

E|--------------------5--5-----------------------------|------------------------------------17--0-|| 
B|-------5------------5--5---5-------------------------|----------------------7--5~~--------------|| 
G|-7p5-------7p5--------------------5---<7>---<7>b9r7--|--<7>br--5-------<5>--7--5~~---(5)--------|| 
D|----------------7----------7-------------------------|-------------7----------------------------|| 
A|-----------------------------------------------------|------------------------------------------|| 
E|-----------------------------------------------------|------------------------------------------|| 

E|--0--20p17--0--20p17--0--20p17--0---20b--20b--|-20p17------17-----------------------17----------|| 
B|----------------------------------------------|--------20------20b--20-20-20-------------17-----|| 
G|----------------------------------------------|-------------------------------19b------------20-|| 
D|----------------------------------------------|-------------------------------------------------|| 
A|----------------------------------------------|-------------------------------------------------|| 
E|----------------------------------------------|-------------------------------------------------|| 

E|---------------|-------20--17----------------------------------------------------------|| 
B|--17p20----17--|-(17)----------20--17------17--20--17----------------------------------|| 
G|---------------|-----------------------20--------------19--17-------17--19--17------17-|| 
D|---------------|-----------------------------------------------19---------------19-----|| 
A|---------------|-----------------------------------------------------------------------|| 
E|---------------|-----------------------------------------------------------------------|| 

E|--------------------------------------------------------------------|| 
B|-------17--17--------17-17------17------17------17-17-17-----17-17--|| 
G|--19b----------19br---------19------19b----19b-----------19b--------|| 
D|--------------------------------------------------------------------|| 
A|--------------------------------------------------------------------|| 
E|--------------------------------------------------------------------|| 

E|-20b--20br----17---20---17--20--17-------|-17--------------------------------------|| 
B|-------------------------------------20--|------20b---20br---20-(20)-17------------|| 
G|-----------------------------------------|------------------------------19----17---|| 
D|-----------------------------------------|-----------------------------------------|| 
A|-----------------------------------------|-----------------------------------------|| 
E|-----------------------------------------|-----------------------------------------|| 

E|----------19--17----19----19b---19~~--|--19--17--------17---------------------|| 
B|-17---19------------------------------|----------19---------17---20b----20----|| 
G|--------------------------------------|---------------------------------------|| 
D|--------------------------------------|---------------------------------------|| 
A|--------------------------------------|---------------------------------------|| 
E|--------------------------------------|---------------------------------------|| 

E|-17---------------------------------------------20--17--------------|| 
B|-----20--17-------17--20--17------17---20--17-----------20--17--17--|| 
G|-------------19b--------------19------------------------------------|| 
D|--------------------------------------------------------------------|| 
A|--------------------------------------------------------------------|| 
E|--------------------------------------------------------------------|| 



E|----------------------------------------------------------------|| 
B|--17--20--17----------------------------------------------------|| 
G|--------------19--17--------17----<(17)>----(17)\\\\\-----------|| 
D|----------------------19----------------------------------------|| 
A|-------------------------------------------------x-------0------|| 
E|----------------------------------------------------------------|| 

E|------------------|--------|| 
B|--------------6h8-|--------|| 
G|-----------7------|---2----|| 
D|--------6---------|---2----|| 
A|-----7------------|---0----|| 
E|--0---------------|--------|| 
	  

Search Paypal
auto scroll beats size up size down change color hide chords drawings
tab show chords e-chords YouTube Clip e-chords hide all tabs e-chords go to top tab