Metallica

home > Metallica

Fuck Like A Beaver Tab

Metallica

Difficulty: nolevelnolevel

by aman%5Fclaudino

tuner correct add songbook print version text version save to e-mail
chordsukulelecavacokeyboardtabbassdrumsharmonicsflute Guitar Pro
chords

Fuck Like A Beaver

  		(Instrumental) 
     W                   E            E  E  E  E  E  S S S S 
E|-------------------|--------------------------------------| 
B|-------------------|--------------------------------------| 
G|-------------------|--------------------------------------| 
D|-------------------|--2------------2--------2--2----------| 
A|-------------------|--2------------2--------2--2----------| 
E|-------------------|--0------------0--0--0--0--0--0-0-0-0-| 

  E                                               E  E  E  E  E  S S S S 
-------------------------------------------------------------------------| 
-------------------------------------------------------------------------| 
-------------------------------------------------------------------------| 
--2-----------------------------------------------2--------2--2----------| 
--2-----------------------------------------------2--------2--2----------| 
--0-----------------------------------------------0--0--0--0--0--0-0-0-0-| 

   E             E  E  E  E  E  S S S S    Q    E  Q    E  E  E 
---------------------------------------|------------------------| 
---------------------------------------|------------------------| 
---------------------------------------|------------------------| 
--2-------------2--------2--2----------|--3----2--3----2--3--2--| 
--2-------------2--------2--2----------|--3----2--3----2--3--2--| 
--0-------------0--0--0--0--0--0-0-0-0-|--1----0--1----0--1--0--| 

  E  E  S S S S E  E  S S S S    E  E  S S S S E  E  S S S S 
------------------------------|------------------------------| 
------------------------------|------------------------------| 
------------------------------|------------------------------| 
--2--2----------2--2----------|--2--2----------2--2----------| 
--2--2----------2--2----------|--2--2----------2--2----------| 
--0--0--0-0-0-0-0--0--0-0-0-0-|--0--0--0-0-0-0-0--0--0-0-0-0-| 

   E  E  S S S S E  E  S S S S    Q    E  Q    E  E  E 
------------------------------|------------------------| 
------------------------------|------------------------| 
------------------------------|------------------------| 
--2--2----------2--2----------|--3----2--3----2--3--2--| 
--2--2----------2--2----------|--3----2--3----2--3--2--| 
--0--0--0-0-0-0-0--0--0-0-0-0-|--1----0--1----0--1--0--| 

  E  E  S S S S E  E  S S S S    E  E  S S S S E  E  S S S S 
------------------------------|------------------------------| 
------------------------------|------------------------------| 
------------------------------|------------------------------| 
--2--2----------2--2----------|--2--2----------2--2----------| 
--2--2----------2--2----------|--2--2----------2--2----------| 
--0--0--0-0-0-0-0--0--0-0-0-0-|--0--0--0-0-0-0-0--0--0-0-0-0-| 

   E  E  S S S S E  E  S S S S    Q    E  Q    E  E  E 
------------------------------|------------------------| 
------------------------------|------------------------| 
------------------------------|------------------------| 
--2--2----------2--2----------|--3----2--3----2--3--2--| 
--2--2----------2--2----------|--3----2--3----2--3--2--| 
--0--0--0-0-0-0-0--0--0-0-0-0-|--1----0--1----0--1--0--| 

  E  E  S S S S E  E  S S S S    E  E  S S S S E  E  S S S S 
------------------------------|------------------------------| 
------------------------------|------------------------------| 
------------------------------|------------------------------| 
--2--2----------2--2----------|--2--2----------2--2----------| 
--2--2----------2--2----------|--2--2----------2--2----------| 
--0--0--0-0-0-0-0--0--0-0-0-0-|--0--0--0-0-0-0-0--0--0-0-0-0-| 

  E  E  S S S S E  E  S S S S    Q    E  Q    E  E  E     W 
------------------------------|------------------------|-------------------| 
------------------------------|------------------------|-------------------| 
------------------------------|------------------------|-------------------| 
--2--2----------2--2----------|--3----2--3----2--3--2--|--7----------------| 
--2--2----------2--2----------|--3----2--3----2--3--2--|--7----------------| 
--0--0--0-0-0-0-0--0--0-0-0-0-|--1----0--1----0--1--0--|--5----------------| 

         NH     NH 
  Q      Q      H           E  E  S S S S E  E  S S S S 
-------------------------|------------------------------| 
--------------5--------|------------------------------| 
--------------5--------|------------------------------| 
--5----------------------|--2--2----------2--2----------| 
--5----------------------|--2--2----------2--2----------| 
--3----0---------------|--0--0--0-0-0-0-0--0--0-0-0-0-| 

                                                           NH     NH 
  E  E  S S S S E  E  S S S S    W                   Q      Q      H 
------------------------------|-------------------|-------------------------| 
------------------------------|-------------------|--------------5--------| 
------------------------------|-------------------|--------------5--------| 
--2--2----------2--2----------|--7----------------|--5----------------------| 
--2--2----------2--2----------|--7----------------|--5----------------------| 
--0--0--0-0-0-0-0--0--0-0-0-0-|--5----------------|--3----0---------------| 

  E  E  S S S S E  E  S S S S    E  E  S S S S Q    Q 
------------------------------|--------------------------| 
------------------------------|--------------------------| 
------------------------------|--------------------------| 
--2--2----------2--2----------|--2--2----------2---------| 
--2--2----------2--2----------|--2--2----------2---------| 
--0--0--0-0-0-0-0--0--0-0-0-0-|--0--0--0-0-0-0-0---------| 

  E  E  S S S S E  E  S S S S    E  E  S S S S E  E  S S S S 
------------------------------|------------------------------| 
------------------------------|------------------------------| 
------------------------------|------------------------------| 
--2--2----------2--2----------|--2--2----------2--2----------| 
--2--2----------2--2----------|--2--2----------2--2----------| 
--0--0--0-0-0-0-0--0--0-0-0-0-|--0--0--0-0-0-0-0--0--0-0-0-0-| 

   E  E  S S S S E  E  S S S S    Q    E  Q    E  E  E 
------------------------------|------------------------| 
------------------------------|------------------------| 
------------------------------|------------------------| 
--2--2----------2--2----------|--3----2--3----2--3--2--| 
--2--2----------2--2----------|--3----2--3----2--3--2--| 
--0--0--0-0-0-0-0--0--0-0-0-0-|--1----0--1----0--1--0--| 

  E  E  S S S S E  E  S S S S    E  E  S S S S E  E  S S S S 
------------------------------|------------------------------| 
------------------------------|------------------------------| 
------------------------------|------------------------------| 
--2--2----------2--2----------|--2--2----------2--2----------| 
--2--2----------2--2----------|--2--2----------2--2----------| 
--0--0--0-0-0-0-0--0--0-0-0-0-|--0--0--0-0-0-0-0--0--0-0-0-0-| 

  E  E  S S S S E  E  S S S S    Q    E  Q    E  E  E     W 
------------------------------|------------------------|-------------------| 
------------------------------|------------------------|-------------------| 
------------------------------|------------------------|-------------------| 
--2--2----------2--2----------|--3----2--3----2--3--2--|--7----------------| 
--2--2----------2--2----------|--3----2--3----2--3--2--|--7----------------| 
--0--0--0-0-0-0-0--0--0-0-0-0-|--1----0--1----0--1--0--|--5----------------| 

         NH     NH 
  Q      Q      H           E  E  S S S S E  E  S S S S 
-------------------------|------------------------------| 
--------------5--------|------------------------------| 
--------------5--------|------------------------------| 
--5----------------------|--2--2----------2--2----------| 
--5----------------------|--2--2----------2--2----------| 
--3----0---------------|--0--0--0-0-0-0-0--0--0-0-0-0-| 

                                                            NH     NH 
  E  E  S S S S E  E  S S S S    W                   Q      Q      H 
------------------------------|-------------------|-------------------------| 
------------------------------|-------------------|--------------5--------| 
------------------------------|-------------------|--------------5--------| 
--2--2----------2--2----------|--7----------------|--5----------------------| 
--2--2----------2--2----------|--7----------------|--5----------------------| 
--0--0--0-0-0-0-0--0--0-0-0-0-|--5----------------|--3----0---------------| 


                                                     NH 
  E  E  S S S S E  E  S S S S    E  E  S S S S Q      Q 
------------------------------|----------------------------| 
------------------------------|---------------------5----| 
------------------------------|---------------------5----| 
--2--2----------2--2----------|--2--2----------2-----------| 
--2--2----------2--2----------|--2--2----------2-----------| 
--0--0--0-0-0-0-0--0--0-0-0-0-|--0--0--0-0-0-0-0-----------| 

  Slight Palm Mute during this part 
   E                                 S S E  S S E  S S E  E 
------------------------------------------------------------| 
------------------------------------------------------------| 
------------------------------------------------------------| 
--7---------------------------------7-7-7--7-7-7--7-7-7--5--| 
--7---------------------------------7-7-7--7-7-7--7-7-7--5--| 
--5---------------------------------5-5-5--5-5-5--5-5-5--3--| 

   E  S S E  S S E  S S E  E     E  S S E  S S E  S S E  E 
-----------------------------|-----------------------------| 
-----------------------------|-----------------------------| 
-----------------------------|-----------------------------| 
--7--7-7-7--7-7-7--7-7-7--5--|--7--7-7-7--7-7-7--7-7-7--5--| 
--7--7-7-7--7-7-7--7-7-7--5--|--7--7-7-7--7-7-7--7-7-7--5--| 
--5--5-5-5--5-5-5--5-5-5--3--|--5--5-5-5--5-5-5--5-5-5--3--| 

   E  S S E  S S E  S S E  E     E  S S E  S S E  S S E  E 
-----------------------------|-----------------------------| 
-----------------------------|-----------------------------| 
-----------------------------|-----------------------------| 
--7--7-7-7--7-7-7--7-7-7--5--|--7--7-7-7--7-7-7--7-7-7--5--| 
--7--7-7-7--7-7-7--7-7-7--5--|--7--7-7-7--7-7-7--7-7-7--5--| 
--5--5-5-5--5-5-5--5-5-5--3--|--5--5-5-5--5-5-5--5-5-5--3--| 

   E  S S E  S S E  S S E  E     E  S S E  S S E  S S E  E 
-----------------------------|-----------------------------| 
-----------------------------|-----------------------------| 
-----------------------------|-----------------------------| 
--7--7-7-7--7-7-7--7-7-7--5--|--7--7-7-7--7-7-7--7-7-7--5--| 
--7--7-7-7--7-7-7--7-7-7--5--|--7--7-7-7--7-7-7--7-7-7--5--| 
--5--5-5-5--5-5-5--5-5-5--3--|--5--5-5-5--5-5-5--5-5-5--3--| 

  E  S S E  S S E  S S E  E     E  E  S S S S E  E  S S S S 
-----------------------------|------------------------------| 
-----------------------------|------------------------------| 
-----------------------------|------------------------------| 
--7--7-7-7--7-7-7--7-7-7--5--|--2--2----------2--2----------| 
--7--7-7-7--7-7-7--7-7-7--5--|--2--2----------2--2----------| 
--5--5-5-5--5-5-5--5-5-5--3--|--0--0--0-0-0-0-0--0--0-0-0-0-| 

  E  E  S S S S E  E  S S S S    E  E  S S S S E  E  S S S S 
------------------------------|------------------------------| 
------------------------------|------------------------------| 
------------------------------|------------------------------| 
--2--2----------2--2----------|--2--2----------2--2----------| 
--2--2----------2--2----------|--2--2----------2--2----------| 
--0--0--0-0-0-0-0--0--0-0-0-0-|--0--0--0-0-0-0-0--0--0-0-0-0-| 

  Q    E  Q    E  E  E     E  E  S S S S E  E  S S S S 
------------------------|------------------------------| 
------------------------|------------------------------| 
------------------------|------------------------------| 
--3----2--3----2--3--2--|--2--2----------2--2----------| 
--3----2--3----2--3--2--|--2--2----------2--2----------| 
--1----0--1----0--1--0--|--0--0--0-0-0-0-0--0--0-0-0-0-| 

  E  E  S S S S E  E  S S S S    E  E  S S S S E  E  S S S S 
------------------------------|------------------------------| 
------------------------------|------------------------------| 
------------------------------|------------------------------| 
--2--2----------2--2----------|--2--2----------2--2----------| 
--2--2----------2--2----------|--2--2----------2--2----------| 
--0--0--0-0-0-0-0--0--0-0-0-0-|--0--0--0-0-0-0-0--0--0-0-0-0-| 

                                                      NH     NH 
  Q    E  Q    E  E  E     W                   Q      Q      H 
------------------------|-------------------|-------------------------| 
------------------------|-------------------|--------------5--------| 
------------------------|-------------------|--------------5--------| 
--3----2--3----2--3--2--|--7----------------|--5----------------------| 
--3----2--3----2--3--2--|--7----------------|--5----------------------| 
--1----0--1----0--1--0--|--5----------------|--3----0---------------| 

                                                            NH     NH 
  E  E  S S S S E  E  S S S S    W                   Q      Q      H 
------------------------------|-------------------|-------------------------| 
------------------------------|-------------------|--------------5--------| 
------------------------------|-------------------|--------------5--------| 
--2--2----------2--2----------|--7----------------|--5----------------------| 
--2--2----------2--2----------|--7----------------|--5----------------------| 
--0--0--0-0-0-0-0--0--0-0-0-0-|--5----------------|--3----0---------------| 

  E                                                 E  S S S S E  E  S S S S 
-----------------------------------------------------------------------------| 
-----------------------------------------------------------------------------| 
-----------------------------------------------------------------------------| 
--2-------------------------------------------------2----------2--2----------| 
--2-------------------------------------------------2----------2--2----------| 
--0-------------------------------------------------0--0-0-0-0-0--0--0-0-0-0-| 

  E  E  S S S S Q    Q       W 
--------------------------|-------------------|| 
--------------------------|-------------------|| 
--------------------------|-------------------|| 
--2--2----------2---------|-------------------|| 
--2--2----------2---------|-------------------|| 
--0--0--0-0-0-0-0---------|-------------------|| 
	  

Search Paypal
auto scroll beats size up size down change color hide chords drawings
tab show chords e-chords YouTube Clip e-chords hide all tabs e-chords go to top tab