Metallica

home > Metallica

For Whon The Bell Tolls Tab

Metallica

Difficulty: ExpertExpert

by Hetfield2

tuner correct add songbook print version text version save to e-mail
chordsukulelecavacokeyboardtabbassdrumsharmonicsflute Guitar Pro
chords

For Whon The Bell Tolls

(James, Lars, Cliff)

  		Intro (Riff 1 e 2) 

Riff I  12x 
E|-----------------|| 
B|-----------------|| 
G|-----------------|| 
D|-4--4---4--4---2-|| 
A|-4--4---4--4---2-|| 
E|-2--2---2--2---0-|| 
  PM..........| 

E|-----------------|| 
B|-----------------|| 
G|-----------------|| 
D|-4--4------------|| 
A|-4--4------------|| 
E|-2--2------------|| 
  PM...| 

Riff II 

E|-----------------|-----------------|| 
B|-----------------|-----------------|| 
G|-----------------|-----------------|| 
D|-----------------|--------------2--|| 
A|-2-5-4-3-2-5-4-3-|2-5-4-1-2-4-5-0--|| 
E|-0-3-2-1-0-3-2-1-|0-3-2-1-0-2-3----|| 
  PM..............| PM.............| 

E|-----------------|-----------------|| 
B|-----------------|-----------------|| 
G|-----------------|-----------------|| 
D|-----------------|--------------4--|| 
A|-2-5-4-3-2-5-4-3-|2-5-4-1-2-4-5-2--|| 
E|-0-3-2-1-0-3-2-1-|0-3-2-1-0-2-3----|| 
  PM..............| PM.............| 











Solo 
E|----------------------|| 
B|--12b--12b--12b--12b--|| 
G|----------------------|| 
D|----------------------|| 
A|----------------------|| 
E|----------------------|| 

Part I  15x 
E|---------------------|-------------------|| 
B|---------------------|-------------------|| 
G|--12-9-11----9-11----|--12-9-11----9-11--|| 
D|----------12---------|----------12-------|| 
A|---------------------|-------------------|| 
E|---------------------|-------------------|| 

Part II 
E|---------------------|-------------------|| 
B|---------------------|-------------------|| 
G|--12-9-11----9-------|-------------------|| 
D|----------12---11-12-|--9-11------9------|| 
A|---------------------|--------12-----10--|| 
E|---------------------|-------------------|| 

Riff III 
E|-----------------------|| 
B|-----------------------|| 
G|-----------------------|| 
D|-2-----5----5----------|| 
A|-2-----5----5----------|| 
E|-0-----3----3----------|| 

E|-----------------------|| 
B|-----------------------|| 
G|-----------5---2-------|| 
D|---2---5---3---2-------|| 
A|---2---5---3---0-------|| 
E|---0---3---------------|| 

Riff IV 
E|-------------------------------------|| 
B|-------------------------------------|| 
G|-------------------------------3-----|| 
D|--------5---------7---------5--3--4--|| 
A|--------5---------7---------5--1--4--|| 
E|-0-0-0--3--0-0-0--5--0-0-0--3-----2--|| 

E|--------------------------------------------|| 
B|--------------------------------------------|| 
G|----------------------------------3---------|| 
D|--------5---------7---------------3---4---3-|| 
A|--------5---------7--------5------1---4---3-|| 
E|-0-0-0--3--0-0-0--5--0-0-0-3-0-0------2---1-|| 




Guitar I  James 
E|--------------------------------------------|---------|| 
B|--------------------------------------------|---------|| 
G|--------------------------------------------|---------|| 
D|-9------11------9------12--9--11------9-----|----2----|| 
A|----12------12-----10-------------12-----10-|----2----|| 
E|--------------------------------------------|----0----|| 

E|--------------------------------------------|----------------------|| 
B|--------------------------------------------|----------------------|| 
G|--------------------------------------------|----------------------|| 
D|-9------11------9------12--9--11------9-----|-5---5-5-5-5----5-5-5-|| 
A|----12------12-----10-------------12-----10-|-5---5-5-5-5----5-5-5-|| 
E|--------------------------------------------|-3---3-3-3-3----3-3-3-|| 

E|--------------------------------------------|---------|| 
B|--------------------------------------------|---------|| 
G|--------------------------------------------|---------|| 
D|-9------11------9------12--9--11------9-----|----4----|| 
A|----12------12-----10-------------12-----10-|----4----|| 
E|--------------------------------------------|----2----|| 

E|--------------------------------------------|---------|| 
B|--------------------------------------------|---------|| 
G|--------------------------------------------|---------|| 
D|-9------11------9------12--9--11------9-----|----2----|| 
A|----12------12-----10-------------12-----10-|----2----|| 
E|--------------------------------------------|----0----|| 

E|--------------------------------------------|----------------------|| 
B|--------------------------------------------|----------------------|| 
G|--------------------------------------------|----------------------|| 
D|-9------11------9------12--9--11------9-----|-5---5-5-5-5----5-5-5-|| 
A|----12------12-----10-------------12-----10-|-5---5-5-5-5----5-5-5-|| 
E|--------------------------------------------|-3---3-3-3-3----3-3-3-|| 

E|--------------------------------------------|---------|| 
B|--------------------------------------------|---------|| 
G|--------------------------------------------|---------|| 
D|-9------11------9------12--9--11------9-----|----4----|| 
A|----12------12-----10-------------12-----10-|----4----|| 
E|--------------------------------------------|----2----|| 

Guitar II - Kirk 
E|----------------7------------------7~~-|---(7)---|| 
B|-8-----7-----------8-----10--7--8------|---------|| 
G|----9-----7--9--------9----------------|---------|| 
D|---------------------------------------|---------|| 
A|---------------------------------------|---------|| 
E|---------------------------------------|---------|| 

E|----------------7------------------7~~-|--------------------|| 
B|-8-----7-----------8-----10--7--8------|--------------------|| 
G|----9-----7--9--------9----------------|--------------------|| 
D|---------------------------------------|--------------------|| 
A|---------------------------------------|-5---5-5-5----5-5-5-|| 
E|---------------------------------------|-3---3-3-3----3-3-3-|| 


E|----------------7------------------7~~-|-(7)-|| 
B|-8-----7-----------8-----10--7--8------|-----|| 
G|----9-----7--9--------9----------------|-----|| 
D|---------------------------------------|-----|| 
A|---------------------------------------|-----|| 
E|---------------------------------------|-----|| 

E|----------------7------------------7~~-|-7~~--7~~--7--7----7----7--|| 
B|-8-----7-----------8-----10--7--8------|---------------------------|| 
G|----9-----7--9--------9----------------|---------------------------|| 
D|---------------------------------------|---------------------------|| 
A|---------------------------------------|---------------------------|| 
E|---------------------------------------|---------------------------|| 

E|----------------7------------------7~~-|---------------------------------------|| 
B|-8-----7-----------8-----10--7--8------|-12----12--12--------12--------12------|| 
G|----9-----7--9--------9----------------|----------------12--------12--------12-|| 
D|---------------------------------------|---------------------------------------|| 
A|---------------------------------------|---------------------------------------|| 
E|---------------------------------------|---------------------------------------|| 

E|----------------7------------------7~~-|-7~~--7-7-7b8----7b9~~--|| 
B|-8-----7-----------8-----10--7--8------|------------------------|| 
G|----9-----7--9--------9----------------|------------------------|| 
D|---------------------------------------|------------------------|| 
A|---------------------------------------|------------------------|| 
E|---------------------------------------|------------------------|| 



Guitar I  James 

Riff V  10x 
E|----------|----------------|| 
B|----------|----------------|| 
G|----------|----------------|| 
D|--2---4-4-|-2--4-4---5-5---|| 
A|--2---4-4-|-2--4-4---5-5---|| 
E|--0---2-2-|-0--2-2---3-3---|| 

Guitar II - Wah  Kirk  
E|-22b24------------------------------------------------------------------------------------|| 
B|----------15b17_15_r15~----15b17___r15___b17_r15___b17r15_b17r15_b17r15_15b17r15___15b17~-|| 
G|------------------------------------------------------------------------------------------|| 
D|------------------------------------------------------------------------------------------|| 
A|------------------------------------------------------------------------------------------|| 
E|------------------------------------------------------------------------------------------|| 


E|-17b19___17___17_17_17_17_17___17___17r-------------------------------------------|| 
B|----------------------------------------------------------------------------------|| 
G|----------------------------------------------------------------------------------|| 
D|----------------------------------------------------------------------------------|| 
A|-----------------------------------------17b19r17___--17b19___17___17r-17b19___17-|| 
E|----------------------------------------------------------------------------------|| 
	  

Search Paypal
auto scroll beats size up size down change color hide chords drawings
tab show chords e-chords YouTube Clip e-chords hide all tabs e-chords go to top tab