Metallica

home > Metallica

Fade To Black - Versão Completa Tab

Metallica

Difficulty: nolevelnolevel

by Lukas%5FJose%5F

tuner correct add songbook print version text version save to e-mail
chordsukulelecavacokeyboardtabbassdrumsharmonicsflute Guitar Pro
chords

Fade To Black - Versão Completa

Year: 1986 -

(James Hetfield; Kirk Hammett; Cliff Burton; Lars Ulrich)

  		                                                                      
         Metallica - Fade to Black -  
tab modificada por Lukas José - [email protected]                                                             
                                                                      
                                              
  
aproveitem:: 

H - Hammer On   
P - Pull Off 
/\ - Slides 
~ - Vibrato 
b - bend 
r - release bend 


 \\Tab muito explicativa// 
    ** Aproveitem **  
           :) 


 Introdução 1ª Parte (Violão) - James Hetfield - 1ª Parte  


 e|--------------------------------------------------------------| 
 B|--------------------------------------------------------------| 
 G|----0---------------0---------------0---------------2---------| 
 D|--4---4---4---4---4---4---4---4---4---4---4---4---2---2---2--2| 
 A|2-------2---5---0-------0---5---2-------2---5---4-------4---0-| 
 E|--------------------------------------------------------------| 



 e|--------------------------------------------------------------| 
 B|--------------------------------------------------------------| 
 G|----0---------------0---------------0---------------2---------| 
 D|--4---4---4---4---4---4---4---4---4---4---4---4---2---2---2--2| 
 A|2-------2---5---0-------0---5---2-------2---5---4-------4---0-| 
 E|--------------------------------------------------------------| 



 e|-------------------------------------------------------------| 
 B|-------------------------------0--3--------------------------| 
 G|-----------------------1-----1-------------------------------| 
 D|-----0--------2------2-----2---------------------------------| 
 A|---3--------2---2--2-----2-----------------------------------| 
 E|-1-----1--4--------------------------------------------------| 




  Introdução - Guitarra 2 - Leader - Kirk Hammett  
     (Captador do Braço) 



 e|---------------------------------------------------------------| 
 B|---------------7-8/10~-8-10-12-10-8-8h10~-12-10--8\7--8p7---7--| 
 G|-------7------------------------------------------------9------| 
 D|-/7--9-----9~--------------------------------------------------| 
 A|---------------------------------------------------------------| 
 E|---------------------------------------------------------------| 



 e|-------------------------------------------------------------| 
 B|---7h8--7---7-----------------------------8-7~--8h10~--------| 
 G|----------9---9--7-----------7p6~---7p6----------------------| 
 D|--------------------7-9-9~-----------------------------------| 
 A|-------------------------------------------------------------| 
 E|-------------------------------------------------------------| 




 e|----14-19p14-------15p14-------------------------------------| 
 B|-15----------15----------15----17-15-14----------------------| 
 G|----------------16----------14----------16-14b16-14-14h16----| 
 D|----------------------------------------------------------14~| 
 A|-------------------------------------------------------------| 
 E|-------------------------------------------------------------| 




 e|--------------------------------------------------19-17-15---| 
 B|-------------------14-15-14h15p14--------14-15-14------------| 
 G|-----------14-16--------------------16-----------------------| 
 D|---14h16-----------------------------------------------------| 
 A|-------------------------------------------------------------| 
 E|-------------------------------------------------------------| 




 e|-15-17-14---------14-15-14---------14-15-14------17--15--14--| 
 B|----------15---------------15----------------15--------------| 
 G|-------------16---------------14-----------------------------| 
 D|-------------------------------------------------------------| 
 A|-------------------------------------------------------------| 
 E|-------------------------------------------------------------| 




 e|--------------------------------------12-13-15-13h15p13----17~| 
 B|-----------------------------12-13-15-------------------15----| 
 G|---------------------12--14-----------------------------------| 
 D|-----------12-14-15-------------------------------------------| 
 A|-12-14-15-----------------------------------------------------| 
 E|--------------------------------------------------------------| 





  2ª Parte - Versos - James Hetfeild  


     Am       C                G              Em 
 e|---------0-------------0-------------3-----------------------| 
 B|-0h1-----1-----1---1---1-----0---3---3-------------0--1/3----| 
 G|-2---2-----0h2---0---0---0h2---0---0---2-0-0-------0--2/4----| 
 D|-2-----2---------------------------------------2-------------| 
 A|-0---------------3---------------------------2---2-----------| 
 E|-------------------------------3-----------------------------| 



    Am        C                G               Em 
 e|---------0-------------0-------------3-----------------------| 
 B|-0h1-----1-----1---1---1-----0---3---3---------------0--1/3--| 
 G|-2---2-----0h2---0---0---0h2---0---0---0h2-0-0-------0--2/4--| 
 D|-2-----2-----------------------------------------2-----------| 
 A|-0---------------3-----------------------------2---2---------| 
 E|-------------------------------3-----------------------------| 



    Am      C                  G               Em 
 e|---------0-------------0-------------3-----------------------| 
 B|-0h1-----1-----1---1---1-----0---3---3-------------0--1/3----| 
 G|-2---2-----0h2---0---0---0h2---0---0---2-0-0-------0--2/4----| 
 D|-2-----2---------------------------------------2-------------| 
 A|-0---------------3---------------------------2---2-----------| 
 E|-------------------------------3-----------------------------| 



    Am      C                  G               Em 
 e|---------0-------------0-------------3-----------------------| 
 B|-0h1-----1-----1---1---1-----0---3---3-3-----------0-1/3-----| 
 G|-2---2-----0h2---0---0---0h2---0---0-----2-0-------0-2/4-----| 
 D|-2-----2---------------------------------------2-------------| 
 A|-0---------------3---------------------------2---2-----------| 
 E|-------------------------------3-----------------------------| 







  Verso (Guitarra 2) - Kirk Hammett  
     (Captador do Braço mais o som Clean) 

 O slide no inicio acompanha o slide no violão do James Hetfield. 
            C           G              Em 
 e|-------------3-------------10--------7-------------------------| 
 B|-0-1/3-----5------------12-----------8-------------------------| 
 G|-0-2/4---5-----------12--------------9-------------------------| 
 D|---------------------------------------------------------------| 
 A|---------------------------------------------------------------| 
 E|---------------------------------------------------------------| 



  Am                      C 
    Life, it seems, will fade away 
  G                 Em 
    Drifting further every day  
  Am                 C 
    Getting lost within myself 
  G                  Em 
    Nothing matters, no one else 
  Am                 C 
    I have lost the will to live 
  G                Em 
    Simply nothing more to give 
  Am                  C 
    There is nothing more for me 
  G                 E5 
    Need the end to set me free 



  Interludio 1 -  1ª Parte  (Guitarra 1 & 2)- James Hetfield & Kirk Hammett 
     (Distorção mais capatador da ponte) 

        
              A5                 C5                 A5   
 e|--------------------------------------------------------------| 
 B|--------------------------------------------------------------| 
 G|----x---------------------------------------------------------| 
 D|----x-------2--2-2-------------5--5-5-------------2--2-2------| 
 A|----x-------0--0-0-----------5-3--3-3-----------5-0--0-0------| 
 E|---------------------0-0-3--------------0-0-3-----------------| 
      P.M.               P.M.               P.M. 


   D5 E5       C5 B5 A5           C5             A5      G5 F#5 E5 
 e|--------------------------------------------------------------| 
 B|--------------------------------------------------------------| 
 G|--------------------------------------------------------------| 
 D|-7-9-9--9----5-4-2--2-2---------5--5-5--------2-2-2-----------| 
 A|-5-7-7--7----3-2-0--0-0-------5-3--3-3------5-0-0-0----5-4--2-| 
 E|------------------------0-0-3----------0-0-3-----------3-2--0-| 
                            P.M.           P.M.           P.M. 


** Use o palm mute apenas na corda E (6ª) e no final use apenas no 
   G5 e F#5 - Deixe o soar o E5 ** 

 REPITA ISSO 2X NO INTERLÚDIO 





 Interludio - Solo Riff - (Guitarra 2) - Kirk Hammett 
    (Distorção mais captador do braço) 



 e|-------------------------------------------------------------| 
 B|---------------15--------------------------------------------| 
 G|-/14~-14-16-17----17-16\12~-12/14\9~--9/11-11/12-12/14~------| 
 D|-------------------------------------------------------------| 
 A|-------------------------------------------------------------| 
 E|-------------------------------------------------------------| 



 e|-------------------------------------------------------------| 
 B|-------------15b17r15--13--15b17--15b17--15b17--15b17r15~~---| 
 G|--14-16-17---------------------------------------------------| 
 D|-------------------------------------------------------------| 
 A|-------------------------------------------------------------| 
 E|-------------------------------------------------------------| 




 Interludio - Solo Riff - (Guitarra 2) - Kirk Hammett   
     



 e|-------------------------------------------------------------| 
 B|-------------------------------------------------------------| 
 G|--9--9h11/12--12b14r12--11-7--7h9----------------------------| 
 D|------------------------------------9--9/11--11/12--12/14----| 
 A|-------------------------------------------------------------| 
 E|-------------------------------------------------------------| 



 e|-------------------------------------------------------------| 
 B|-------------------------------------------------------------| 
 G|------11h12--14b16r14--12--14b16--14b16--14b16--14b16r14-----| 
 D|--14---------------------------------------------------------| 
 A|-------------------------------------------------------------| 
 E|-------------------------------------------------------------| 



 Am                     C 
   Things not what they used to be 
 G               Em 
   Missing one inside of me 
 Am                    C 
   Deathly lost, this can't be real 
 G                   Em 
   Cannot stand this hell I feel 
 Am              C 
   Emptiness is filling me 
 G                Em 
   To the point of agony 
 Am                  C 
   Growing darkness taking dawn 
 G               E5 
   I was me, but now he's gone 



 Interludio 2 - (Guitarra 1 & 2)- James Hetfield & Kirk Hammett> 
    (Distorção mais capatador da ponte) 

 e|--------------------------------------------------------------| 
 B|--------------------------------------------------------------| 
 G|----x---------------------------------------------------------| 
 D|----x-------2--2-2-------------5--5-5-------------2--2-2------| 
 A|----x-------0--0-0-----------5-3--3-3-----------5-0--0-0------| 
 E|---------------------0-0-3--------------0-0-3-----------------| 
      P.M.               P.M.               P.M. 


   D5 E5       C5 B5 A5           C5             A5      G5 F#5 E5 
 e|--------------------------------------------------------------| 
 B|--------------------------------------------------------------| 
 G|--------------------------------------------------------------| 
 D|-7-9-9--9----5-4-2--2-2---------5--5-5--------2-2-2-----------| 
 A|-5-7-7--7----3-2-0--0-0-------5-3--3-3------5-0-0-0----5-4--2-| 
 E|------------------------0-0-3----------0-0-3-----------3-2--0-| 
                            P.M.           P.M.           P.M. 


** Use o palm mute apenas na corda E (6ª) e no final use apenas no 
   G5 e F#5 - Deixe o soar o E5 ** 

 REPITA ISSO 2X NO INTERLÚDIO 





 2ª parte da música: Começa com James Hetfield - Guitarra 1  

  Riff inicial e versos  


 e|-------------------------------------------------------------| 
 B|-------------------------------------------------------------| 
 G|-----------------------------------------------------------4-| 
 D|-7/9--9-9--7/9--9--12--11--7-7--9-9-9--7-7-7--5-5-5--4-4-4---| 
 A|-5/7--7-7--5/7--7--10--9---5-5-------------------------------| 
 E|-------------------------------------------------------------| 



 e|-------------------------------------------------------------| 
 B|-------------------------------------------------------------| 
 G|-----------------------------------------------------------4-| 
 D|-7/9--9-9--7/9--9--12--11--7-7--9-9-9--7-7-7--5-5-5--4-4-4---| 
 A|-5/7--7-7--5/7--7--10--9---5-5-------------------------------| 
 E|-------------------------------------------------------------| 




  Riff 2 - Guitarra 1 - James Hetfield 




 e|-------------------------------------------------------------| 
 B|-------------------------------------------------------------| 
 G|-----------------------------7-7-7--6-6-6--4-4-4--2-2-2--4---| 
 D|-4h5-5-5--4h5--5-9-7--5-5-5----------------------------------| 
 A|-------------------------------------------------------------| 
 E|-------------------------------------------------------------| 



 e|-------------------------------------------------------------| 
 B|-------------------------------------------------------------| 
 G|-----------------------------7-7-7--6-6-6--4-4-4--2-2-2--4---| 
 D|-4h5-5-5--4h5--5-9-7--7-7-7----------------------------------| 
 A|-------------------------------------------------------------| 
 E|-------------------------------------------------------------| 

** A base deste solo é o Riff 1 ** 


 Riff 2 - (Guitarra 3) - Junto a guitarra 1  




 e|----------------------------10-10-10--9-9-9--7-7-7--5-5-5--7-| 
 B|-7h8-8-8--7h8--8-12-10--7-7----------------------------------| 
 G|-------------------------------------------------------------| 
 D|-------------------------------------------------------------| 
 A|-------------------------------------------------------------| 
 E|-------------------------------------------------------------| 




 e|----------------------------10-10-10--9-9-9--7-7-7--5-5-5--7-| 
 B|-7h8-8-8--7h8--8-12-10--7-7----------------------------------| 
 G|-------------------------------------------------------------| 
 D|-------------------------------------------------------------| 
 A|-------------------------------------------------------------| 
 E|-------------------------------------------------------------| 


 ** Repete o primeiro Riff novamente junto aos versos ** 



 Final do Riff - Antes do solo  




 e|-------------------------------------------------------------| 
 B|-------------------------------------------------------------| 
 G|-----------------------------------------------------------4-| 
 D|---------9---------12-11--------7--9-9-9-7-7-7-5-5-5-4-4-4---| 
 A|---------7---------10-9---------5----------------------------| 
 E|-0-0-0-0---0-0-0-0------0-0-0-0------------------------------| 
     P.M.      P.M.         P.M. 



 e|-------------------------------------------------------------| 
 B|-------------------------------------------------------------| 
 G|-----------------------------------------------------------4-| 
 D|---------9---------12-11--------7--9-9-9-7-7-7-5-5-5-4-4-4---| 
 A|---------7---------10-9---------5----------------------------| 
 E|-0-0-0-0---0-0-0-0------0-0-0-0------------------------------| 
     P.M.      P.M.         P.M. 
    



 BASE DO SOLO - (Guitarra 3)   



 e|-------------------------------------------------------------| 
 B|-------------------------------------------------------------| 
 G|-------------------------------------------------------------| 
 D|--4---2-------2---4---2-------2---4--------------------------| 
 A|--2---0---5---0---2---0---5---0---2--------------------------| 
 E|----------3---------------3----------------------------------| 




  Base do solo - Kirk Hammett - Guitarra 2 



 e|-------------------------------------------------------------| 
 B|-------------------------------------------------------------| 
 G|-------------------------------------------------------------| 
 D|---3/4-2-------------3/4-2-------------3/4-2-----------------| 
 A|-2-------5-4p2-------------5-4p2-------------5-4p2-----------| 
 E|---------------5-2-5-------------5-2-3-------------5-2-5-----| 




 e|-------------------------------------------------------------| 
 B|-------------------------------------------------------------| 
 G|-------------------------------------------------------------| 
 D|-3/4-2-------------3/4-2-------------3/4-2-------------------| 
 A|-------5-4p2-----2-------5-4p2-------------5-4p2-------------| 
 E|-------------5-2---------------5-2-5-------------5-2-3-------| 




 e|-------------------------------------------------------------| 
 B|-------------------------------------------------------------| 
 G|-------------------------------------------------------------| 
 D|-3/4-2-------------3/4-2-------------------------------------| 
 A|-------5-4p2-------------5-4p2-----2-------------------------| 
 E|-------------5-2-5-------------5-2---------------------------| 




Base do solo - Guitarra 1 - James Hetfield 



 e|-------------------------------------------------------------| 
 B|-------------------------------------------------------------| 
 G|-------------------------------------------------------------| 
 D|---3/4-5-4--2---------3/4-5-4--2---------3/4-5-4--2----------| 
 A|-5------------5-4-2-4------------5-4---2------------5-4-2-4--| 
 E|-------------------------------------5-----------------------| 




 e|-------------------------------------------------------------| 
 B|-------------------------------------------------------------| 
 G|-------------------------------------------------------------| 
 D|-3/4-5-7--5-4-2-4---3/4-5-4--2---------3/4-5-4--2------------| 
 A|------------------5------------5-4-2-4------------5-4---2----| 
 E|------------------------------------------------------5------| 




 e|-------------------------------------------------------------| 
 B|-------------------------------------------------------------| 
 G|-------------------------------------------------------------| 
 D|-3/4-5-4--2---------3/4-5-4-7--5-4-2-4-----------------------| 
 A|------------5-4-2-4--------------------5---------------------| 
 E|-------------------------------------------------------------| 



 Solo - Kirk Hammett 



 e|-------------------------------------------------------------| 
 B|---------------------------------------------7-7h8-7---7h8-7-| 
 G|---------7--9b11--9b11--9b11--9b11r9p7--9--9---------7-------| 
 D|-7/9-9-9-----------------------------------------------------| 
 A|-------------------------------------------------------------| 
 E|-------------------------------------------------------------| 




 e|-------------------------------------------------------------| 
 B|---7h8-7---8/10--8-10-12-10-8-10-8-7-8-7---7-----------------| 
 G|-7-------7-------------------------------9---9-7-------------| 
 D|-------------------------------------------------7--9--9-----| 
 A|-------------------------------------------------------------| 
 E|-------------------------------------------------------------| 




 e|---------------------------7---------7---------7-------------| 
 B|-----------------------------10p7------10p7------10p7--------| 
 G|-7-9-9b11r9p7-9-7---7-9b11--------9---------9---------9------| 
 D|------------------9------------------------------------------| 
 A|-------------------------------------------------------------| 
 E|-------------------------------------------------------------| 





 e|-7---------7---------7---------7---------7-10p7---7-10p7-10p7| 
 B|---10p7------10p7------10p7------10p7----------10------------| 
 G|--------9---------9---------9---------9----------------------| 
 D|-------------------------------------------------------------| 
 A|-------------------------------------------------------------| 
 E|-------------------------------------------------------------| 



  

 e|----7-10p7-10p7-----7-10p7-----7-10p7-10p7----7-10p7-10p7----| 
 B|-10-------------10---------10--------------10-------------10-| 
 G|-------------------------------------------------------------| 
 D|-------------------------------------------------------------| 
 A|-------------------------------------------------------------| 
 E|-------------------------------------------------------------| 





 e|-7--10b12--10b12--10-8-7-8-7----7----------------------------| 
 B|-----------------------------10---10-8-10-8-7-8-7---7--------| 
 G|--------------------------------------------------9---9-7----| 
 D|----------------------------------------------------------7--| 
 A|-------------------------------------------------------------| 
 E|-------------------------------------------------------------| 





 e|------------------7-------------------------------7-8-7--7-8-| 
 B|-----8p7---7-8-10---10-8-7-----------8p7---7-8-10------------| 
 G|--------9-----------------9-7-----------9--------------------| 
 D|-9-9---------------------------7-9-9-------------------------| 
 A|-------------------------------------------------------------| 
 E|-------------------------------------------------------------| 





 e|-10-8-7-8-7----7----------------------------------------------| 
 B|------------10---10-8-10-8-7-8-7---7--------------------------| 
 G|---------------------------------9---9-7-9-7-6-7-6-------6-7-9| 
 D|---------------------------------------------------9-7-9------| 
 A|--------------------------------------------------------------| 
 E|--------------------------------------------------------------| 




 e|--------7---------------------7------------------------------| 
 B|-7-8-10---10-8-7-8-7---7-8-10---10-8-7h8p7-------------------| 
 G|---------------------9---------------------9-9b11--9b11--9b11| 
 D|-------------------------------------------------------------| 
 A|-------------------------------------------------------------| 
 E|-------------------------------------------------------------| 




 e|----------------------------10-10-10---10-10-10---10-10-10---| 
 B|----------------------------10-10-10---10-10-10---10-10-10---| 
 G|-9b11--9b11(tr)r9p7---7-----7--7--7----7--7--7----7--7--7----| 
 D|--------------------9----------------------------------------| 
 A|-------------------------------------------------------------| 
 E|-------------------------------------------------------------| 




 e|-------------------------------------------------------------| 
 B|-10b12--10b12--10b12--12r10p7---7-8-7h8p7--------------------| 
 G|------------------------------9-----------9-7---7---7-9p7---7| 
 D|----------------------------------------------9---9-------9--| 
 A|-------------------------------------------------------------| 
 E|-------------------------------------------------------------| 




 e|--------------------------------15p12----12-15p12-14p12----12| 
 B|--------------------------------------12----------------12---| 
 G|-------------------------------------------------------------| 
 D|-9-7-9-7---7-------------------------------------------------| 
 A|---------9---9-7-9-7-5-7p5---5-------------------------------| 
 E|---------------------------7---------------------------------| 





 e|-15p12-14p12----12--15p12----15p12-14p12----12--15p12-14p12--| 
 B|-------------12-----------12-------------12------------------| 
 G|-------------------------------------------------------------| 
 D|-------------------------------------------------------------| 
 A|-------------------------------------------------------------| 
 E|-------------------------------------------------------------| 





 e|----12--17p14----14--17p14----14--17p14----14--17p14---------| 
 B|-12-----------15-----------15-----------15------------15-----| 
 G|-------------------------------------------------------------| 
 D|-------------------------------------------------------------| 
 A|-------------------------------------------------------------| 
 E|-------------------------------------------------------------| 




 e|-14--17p14----14--17p14----14--17p14-----14--17p14-----------| 
 B|-----------15-----------15-----------15------------15--------| 
 G|-------------------------------------------------------------| 
 D|-------------------------------------------------------------| 
 A|-------------------------------------------------------------| 
 E|-------------------------------------------------------------| 




 e|-19p15----15-19p15-17p15----15--19p15-17p15----15--19p15----15| 
 B|-------17----------------17-----------------17-----------17---| 
 G|--------------------------------------------------------------| 
 D|--------------------------------------------------------------| 
 A|--------------------------------------------------------------| 
 E|--------------------------------------------------------------| 




 e|-19p15-17p15----15--19p15-17p15----15---21p17----17--21p17---| 
 B|-------------17-----------------17------------19-----------19| 
 G|-------------------------------------------------------------| 
 D|-------------------------------------------------------------| 
 A|-------------------------------------------------------------| 
 E|-------------------------------------------------------------| 





 e|-17--21p17----17--21p17----17--21p17----17--21p17----17--21p17| 
 B|-----------19-----------19-----------19-----------19----------| 
 G|--------------------------------------------------------------| 
 D|--------------------------------------------------------------| 
 A|--------------------------------------------------------------| 
 E|--------------------------------------------------------------| 






 e|----17--21p17----17---22b24-----22b24-----22b24-----22b24----| 
 B|-19-----------19---------------------------------------------| 
 G|-------------------------------------------------------------| 
 D|-------------------------------------------------------------| 
 A|-------------------------------------------------------------| 
 E|-------------------------------------------------------------| 




 e|-22b24--22b24--22b24-22b24--22--17---22-20-19-20-19-17-19-17-| 
 B|-------------------------------------------------------------| 
 G|-------------------------------------------------------------| 
 D|-------------------------------------------------------------| 
 A|-------------------------------------------------------------| 
 E|-------------------------------------------------------------| 




 e|-15-17-15-14-15-14-12-14-12-10-12-10-9-10-9-7-9-7----7-------| 
 B|--------------------------------------------------10---10-8--| 
 G|-------------------------------------------------------------| 
 D|-------------------------------------------------------------| 
 A|-------------------------------------------------------------| 
 E|-------------------------------------------------------------| 




 e|-------------------------------------------------------------| 
 B|-10-8-7-8-7---7-----------------------------------------10b12| 
 G|------------9---9-7-9-7---7---7--9b11-9b11-9b11(tr)r9p7------| 
 D|------------------------9---9--------------------------------| 
 A|-------------------------------------------------------------| 
 E|-------------------------------------------------------------| 



Mais dicas: [email protected] 
WhatsApp: +55 93 99170-1080 

Tablatura modificada por mim, Lukas José, sendo original do Cifras 


	  

Full key step upFull key step up
Half key step upHalf key step up
Half key step downHalf key step down
Full key step downFull key step down
Search Paypal
auto scroll beats size up size down change color hide chords drawings
tab show chords e-chords YouTube Clip e-chords hide all tabs e-chords go to top tab