Metallica

home > Metallica

Eye Of Beholder Tab

Metallica

Difficulty: nolevelnolevel

by Hetfield2

tuner correct add songbook print version text version save to e-mail
chordsukulelecavacokeyboardtabbassdrumsharmonicsflute Guitar Pro
chords

Eye Of Beholder

  		Intro 
					   X14 
E|---------------------------------------------|| 
B|---------------------------------------------|| 
G|*-------------------------------------------*|| 
D|*---------------9---------------------------*|| 
A|----------------7----------------------------|| 
E|--0---0---0--0--0---0--0--0--0--0--0--0--0---|| 
   PM..........|     PM....................| 

Two guitars (notated one above the other next 4 bars): 
										X3 
E|--------------------------------------------|--------------------------------------|| 
B|--------------------------------------------|--------------------------------------|| 
G|*-------------------------------------------|-------------------------------------*|| 
D|*-------------------------------------------|-------------------------------------*|| 
A|--2---2---2--2--2---5--5--5--5--5--5--5--5--|--2---2---2--2---2--2--2--2--2--2--2--|| 
E|--3---3---3--3--3---2--2--2--2--2--2--2--2--|--2---2---2--2---0--0--0--0--0--0--0--|| 
   PM..........|     PM.....................................|  PM.................| 

E|--------------------------------------------|-------------------|| 
B|--------------------------------------------|-------------------|| 
G|--------------------------------------------|-------------------|| 
D|--------------------------------------------|-------------------|| 
A|--2---2---2--2--2---5--5--5--5--5--5--5--5--|--2---2---2--2--2--|| 
E|--3---3---3--3--3---2--2--2--2--2--2--2--2--|--2---2---2--2--2--|| 
    PM..........|    PM.....................................|  

				    X4 
E|------------------------------------||-----------------------------------|| 
B|------------------------------------||-----------------------------------|| 
G|*----------------------------------*||*----------------------------------|| 
D|*----------------------------------*||*-------------------9--9--9---8-~--|| 
A|-----7------------------7-----7-----||-----7--------------7--7--7---7-~--|| 
E|--0--0--0---0---0----0--0--0--0--0--||--0--0--0---0---0------------------|| 
   PM.......................................................| 

E|-----------------------------------|-----------------------------------|| 
B|-----------------------------------|-----------------------------------|| 
G|-----------------------------------|-----------------------------------|| 
D|--------------------9--9--9---8-~--|--------------------9--9--9---8-~--|| 
A|-----7--------------7--7--7---7-~--|-----7--------------7--7--7---7-~--|| 
E|--0--0--0---0---0------------------|--0--0--0---0---0------------------|| 
   PM.............|                    PM.............| 

1. 
E|----------------------------------------|| 
B|----------------------------------------|| 
G|---------------------------------------*|| 
D|--------------------8h9p8--------------*|| 
A|-----7------------------------7h8p7-----|| 
E|--0--0--0---0---0----------0---------0--|| 
   PM.............|         PM        PM 


2. 
E|----------------------------------------|---------------------|----------------|| 
B|----------------------------------------|---------------------|----------------|| 
G|----------------------------------------|---------------------|----------------|| 
D|--------------------8h9p8---------------|---------------------|--2--------2----|| 
A|--7--7--7---7---7-------------7h8p9-----|---------------------|--2--------2----|| 
E|--0--0--0---0---0----------0---------0--|--6h7p6--0|--0--------0----|| 
   PM.............|         PM        PM 

1st, 3rd verses 
Rhy Fig 1 

E|-------------------------------|-------------------------------|| 
B|-------------------------------|-------------------------------|| 
G|*---------------------------4--|----------------------------3--|| 
D|*---------------------------5--|----------------------------4--|| 
A|----------------------------5--|----------------------------4--|| 
E|--0-0-0-0-0-0-0-0-3--3--3-3-3--|--2-2-2-2-2-2-2-2-2--2--2-2-2--|| 
   PM.......................|      PM.......................| 

E|-------------------------------|-------------------------------|| 
B|-------------------------------|-------------------------------|| 
G|*---------------------------4--|----------------------------3--|| 
D|*---------------------------5--|----------------------------4--|| 
A|----------------------------5--|----------------------------4--|| 
E|--0-0-0-0-0-0-0-0-3--3--3-3-3--|--2-2-2-2-2-2-2-2-2--2--2-2-2--|| 
   PM.......................|      PM.......................| 

E|-------------------------------|-------------------------------|| 
B|-------------------------------|-------------------------------|| 
G|*---------------------------4--|----------------------------3--|| 
D|*---------------------------5--|----------------------------4--|| 
A|----------------------------5--|----------------------------4--|| 
E|--0-0-0-0-0-0-0-0-3--3--3-3-3--|--2-2-2-2-2-2-2-2-2--2--2-2-2--|| 
   PM.......................|      PM.......................| 

End Rhy Fig1 

E|-------------------------------|-------------------------------|| 
B|-------------------------------|-------------------------------|| 
G|*---------------------------4--|----------------------------3--|| 
D|*---------------------------5--|----------------------------4--|| 
A|----------------------------5--|----------------------------4--|| 
E|--0-0-0-0-0-0-0-0-3--3--3-3-3--|--2-2-2-2-2-2-2-2-2--2--2-2-2--|| 
   PM.......................|      PM.......................| 
  
E|-------------------------------------------|-------------------------------------------|| 
B|-------------------------------------------|-------------------------------------------|| 
G|-------------------------------------------|-------------------------------------------|| 
D|-------------------------------------------|-------------------------------------------|| 
A|----------------------------------------7--|----------------------------------------7--|| 
E|--0--0--0--0--0--0--0--0--0---0---0--0--0--|--0--0--0--0--0--0--0--0--0---0---0--0--0--|| 
   PM..................................|       PM..................................| 


S/S 
2nd, 4th, 5th verses 
W/ Rhy Fig 1 

E|--------------|------------------------------|-----------------------------|| 
B|--------------|------------------------------|-----------------------------|| 
G|--3-----------|----9---9---10---7---7-----8--|----9---9---10---7---7----8--|| 
D|--4-----------|----9---9---10---7---7-----8--|----9---9---10---7---7----8--|| 
A|--4-----------|----7---7----8---5---5-----6--|----7---7---8----5---5----6--|| 
E|--2-----3--2--|--0---0---0----0---0----------|--0---0---0----0---0---------|| 

E|-----------------------------|----------------------------|----------------------------|| 
B|-----------------------------|----------------------------|----------------------------|| 
G|----9---9---10---7---7----8--|----9---9--10---7---7----8--|----9---9--10---7---7----8--|| 
D|----9---9---10---7---7----8--|----9---9--10---7---7----8--|----9---9--10---7---7----8--|| 
A|----7---7----8---5---5----6--|----7---7---8---5---5----6--|----7---7---8---5---5----6--|| 
E|--0-7-0-7-0--8-0-5-0-5----6--|--0-7-0-7-0-8-0-5-0-5----6--|--0-7-0-7-0-8-0-5-0-5----6--|| 




1st & 2nd times only 	      1st time only 
E|--------------------|------------------------|------------------------|| 
B|--------------------|------------------------|------------------------|| 
G|--------------------|------------------------|------------------------|| 
D|-9------------9-----|--4/5-------------2-----|--4/5-------------5-----|| 
A|-7------------7-----|--4/5-------------2-----|--4/5----------5--5-----|| 
E|-0---0--0--0--0-----|--2/3----0--0--0--0-----|--2/3----3--3--3--3-----|| 
      PM.....|                 PM.....|                 PM.....| 

E|-----------------|---------------------------------|------------------------|| 
B|-----------------|---------------------------------|------------------------|| 
G|-----------------|---------------------------------|--3--------4\-3---------|| 
D|-----------------|---------------------------------|--4--------5\-4---------|| 
A|--8-8-8---5-5-5/-|-/7-7-7---5-5-5---4-4-4---5-5-5--|--4--------5\-4---------|| 
E|--6-6-6---3-3-3/-|-/5-5-5---3-3-3---2-2-2---3-3-3--|--2-----3--3\-2---/12\--|| 
   PM.............................................|          PM 

E|---------------------|-------------------|---------------------|-------------------|| 
B|---------------------|-------------------|---------------------|-------------------|| 
G|--3-----4--3----4----|--3-----4--3----4--|--3----3----4-----4--|--3-----4--3----4--|| 
D|--4-----5--4----5----|--4-----5--4----5--|--4----4----5-----5--|--4-----5--4----5--|| 
A|--4-----5--4----5----|--4-----5--4----5--|--4----4----5-----5--|--4-----5--4----5--|| 
E|--2-----3--2----3----|--2-----3--2----3--|--2----2----3-----3--|--2-----3--2----3--|| 

Independence limited. 
Freedomof choice is made for 

3rd time to Coda 
E|---------------------|------------------|----------------------|-------------------|| 
B|---------------------|------------------|----------------------|-------------------|| 
G|--3-----4--3----4----|--3----4--3----4--|--3-----3----4-----4--|--3-----4--3----4--|| 
D|--4-----5--4----5----|--4----5--4----5--|--4-----4----5-----5--|--4-----5--4----5--|| 
A|--4-----5--4----5----|--4----5--4----5--|--4-----4----5-----5--|--4-----5--4----5--|| 
E|--2-----3--2----3----|--2----3--2----3--|--2-----2----3-----3--|--2-----3--2----3--|| 

  You my friend! Freedom of speech is words that they will bend! 
E|--------------------|-------------------|| 
B|--------------------|-------------------|| 
G|--3--------6-----6--|--1-----1--1----1--|| 
D|--4--------7-----7--|--2-----2--2----2--|| 
A|--4--------7-----7--|--2-----2--2----2--|| 
E|--2--------5-----5--|--0-----0--0----0--|| 


    Freedom with  their exception! 
E|-------------------------|-------------------------|-------------------------|| 
B|-------------------------|-------------------------|-------------------------|| 
G|-------------------------|-------------------------|-------------------------|| 
D|---------------9-9-9--8~-|---------------9-9-9--8~-|---------------9-9-9--8~-|| 
A|----7----------7-7-7--7~-|----7----------7-7-7--7~-|----7----------7-7-7--7~-|| 
E|--0-0-0--0--0------------|--0-0-0--0--0------------|--0-0-0--0|| 
   PM.........|              PM.........|              PM.........| 

E|--------------------------------------------------------|| 
B|--------------------------------------------------------|| 
G|-------------------------------------------------------*|| 
D|---------------8h9p8----------------------------2------*|| 
A|----7------------------7h8p7--------------------2-------|| 
E|--0-0-0--0--0--------0-------0-6h7p6-0-2h3p2-0--0-------|| 
   PM.........|       PM      PM      PM      PM 

E|-----------------------------|------------------------|-----------------------------|| 
B|-----------------------------|------------------------|-----------------------------|| 
G|-----------------------------|------------------------|-----------------------------|| 
D|--9----------10-10-10--8--9--|--------------9-9-9--8~-|--9----------10-10-10--8--9--|| 
A|--7-----------7--7--7--7--7--|--------------7-7-7--7~-|--7-----------7--7--7--7--7--|| 
E|--0--0--0--0--0--------0-----|--0--0--0--0------------|-----0--0--0--0--------0-----|| 
      PM.....|                   PM........|                 PM.....| 

E|------------------------|-----------------------------|---------------------------|| 
B|------------------------|-----------------------------|---------------------------|| 
G|------------------------|-----------------------------|---------------------------|| 
D|--------------9-9-9--8~-|--9----------10-10-10--8--9--|---------------------5-----|| 
A|--------------7-7-7--7~-|--7-----------7--7--7--7--7--|-----------------5------5--|| 
E|--0--0--0--0------------|-----0--0--0--0--------0-----|--0--0--0--0--7------------|| 
   PM........|                 PM.....|                   PM........|           PM 

E|-----------------------------|---------------------------|-----------------------|| 
B|-----------------------------|---------------------------|-----------------------|| 
G|-----------------------------|---------------------------|-----------------------|| 
D|--9----------10-10-10--8--9--|---------------------5-----|-----------------------|| 
A|--7-----------7--7--7--7--7--|-----------------5------5--|--9----10-10-10--8--9--|| 
E|--0--0--0--0--0--------0-----|--0--0--0--0--7------------|--7--7--7--7--7--7--7--|| 
      PM...................................|           PM       PM..............| 

E|---------------------------------|----------------------------|---------------------------|| 
B|---------------------------------|----------------------------|---------------------------|| 
G|---------------------------------|----------------------------|---------------------------|| 
D|--------------------5------5-----|----------------------------|---------------------5-----|| 
A|----------------6------6------5--|--9----------10-10-10--8--9-|-----------------6------5--|| 
E|-7--7--7--7--7-------------------|--7--7--7--7--7--7--7--7--7-|-7--7--7--7--7-------------|| 
     PM........|  PM     PM    PM...............................|                PM 

Two guitars 
E|------------------------8--------------|------------------------------------------|| 
B|------10---8h10p8-----------10--8h10p8-|----------10-8h10p8/6--5--6p5-----6p5-----|| 
G|--10--10---9h10p9--10--12---10--9h10p9-|--10---9--10-9h10p9/5--5--5p4--7--5p4--5--|| 
D|--12---------------12------------------|--12--10-----------------------7-------5--|| 
A|---------------------------------------|------------------------------------------|| 
E|---------------------------------------|------------------------------------------|| 

E|---------------------------------------|-------------------------------------------|| 
B|---------------------------------------|-------------------------------------------|| 
G|---------------------------------------|-------------------------------------------|| 
D|---7---------------8--8--8---6---7-----|-------------------------------------------|| 
A|---5---5---5---5---5---------5---------|---5---5----5-----5-------3------3------3--|| 
E|---------------------------------------|----------------------5--------------------|| 
        PM.......|                          PM..............|      PM     PM     PM 


E|---------------------------------------|-------------------------------------------|| 
B|---------------------------------------|-------------------------------------------|| 
G|---------------------------------------|-------------------------------------------|| 
D|--7\-----------------------------------|-------------------------------------------|| 
A|--7\-----------------------------------|-------------------------------------------|| 
E|---------------------------------------|-------------------------------------------|| 

E|------------------------------|------------------------------|| 
B|------------------------------|------------------------------|| 
G|------------------------------|------------------------------|| 
D|------------------------------|------------------------------|| 
A|--7-7-7--8-8-8--6-6-6--7-7-7--|--9-9-9--7-7-7--6-6-6--7-7-7--|| 
E|--5-5-5--6-6-6--4-4-4--5-5-5--|--7-7-7--5-5-5--4-4-4--5-5-5--|| 
   PM.......................................................| 

E|------------------------------|--------------------------------|| 
B|------------------------------|--------------------------------|| 
G|------------------------------|--7--7--5---5---4---4---5---5---|| 
D|--7-7-7--5-5-5--4-4-4--5-5-5--|--7--7--5---5---4---4---5---5---|| 
A|--5-5-5--3-3-3--2-2-2--3-3-3--|--5--5--3---3---2---2---3---3---|| 
E|------------------------------|--------------------------------|| 
   PM........................................................| 

Guitar Solo: 

Trem Bar:  \-4/ \-2.5/ \-2.5/     \-2.5/ 
E|------------------------------|---------------------------22b25--|| 
B|------------------------------|----------------------------------|| 
G|-----2-------4--/--9--/--11---|--/22b23---22b23-~-~----X---------|| 
D|------------------------------|----------------------------------|| 
A|------------------------------|----------------------------------|| 
E|------------------------------|----------------------------------|| 

            Wah on as filter 
E|--(22)---22b25-~-~-19h22p19-18---18--|--18h19p18/15--15-15h18p15/14--------|| 
B|-------------------------------------|-------------------------------------|| 
G|-------------------------------------|-------------------------------------|| 
D|-------------------------------------|-------------------------------------|| 
A|-------------------------------------|-------------------------------------|| 
E|-------------------------------------|-------------------------------------|| 

E|--14h15p14----14---------------------------------------|| 
B|-----------17----17-15-14----14h15p14-----------15p14--|| 
G|--------------------------16----------16-15-16---------|| 
D|-------------------------------------------------------|| 
A|-------------------------------------------------------|| 
E|-------------------------------------------------------|| 

E|--------------------------------------------|| 
B|------------15p14-----------15p14-----------|| 
G|--16-15-16--------16-15-16--------16-15-16--|| 
D|--------------------------------------------|| 
A|--------------------------------------------|| 
E|--------------------------------------------|| 

E|---------------------14-15-14h15p14----14-15-18--18--|| 
B|---15p14----14-15-17----------------17---------------|| 
G|-X-------16------------------------------------------|| 
D|-----------------------------------------------------|| 
A|-----------------------------------------------------|| 
E|-----------------------------------------------------|| 

D.S al Coda 
     T      T       T       T \-2.5/ 
E|--19p18p15-19p18p15-19p18p15-19p18p15------------|| 
B|----------------------------------------19-------|| 
G|----------------------------------------19-------|| 
D|-------------------------------------------------|| 
A|-------------------------------------------------|| 
E|-------------------------------------------------|| 

Coda: 

E|---------------|-------------------|| 
B|---------------|-------------------|| 
G|--3-----4---4--|--1----1--1---1----|| 
D|--4-----7---7--|--2----2--2---2----|| 
A|--4-----7---7--|--2----2--2---2----|| 
E|--2-----5---5--|--0----0--0---0----|| 

Freedom no longer frees you! 
					X4 
E|-----------------------------------------||--------------------------|| 
B|-----------------------------------------||--------------------------|| 
G|*-----9-----9-\7-10-----7-----7------8--*||--------------------------|| 
D|*-----9-----9-\7-10-----7-----7------8--*||--2--------------2--------|| 
A|------7-----7-\5--8-----5-----5------6---||--2--------------2--------|| 
E|---0--7--0--7-\5--8--0--5--0--5------6---||--0-----0--0--0--0--------|| 
    PM    PM          PM    PM                      PM.....| 

E|-------------------------------------|--------------------------------------|| 
B|-------------------------------------|--------------------------------------|| 
G|-----9----9----10-----7----7------8--|-----9----9----10-----7-----7------8--|| 
D|-----7----7----10-----7----7------8--|-----9----9----10-----7-----7------8--|| 
A|-----7----7-----8-----5----5------6--|-----7----7-----8-----5-----5------6--|| 
E|--0-----0----0-----0-----0-----------|--0-----0----0-----0-----0------------|| 
   PM    PM   PM    PM    PM             PM    PM   PM    PM    PM 

E|---------------------|-----------------|| 
B|---------------------|-----------------|| 
G|---------------------|-----------------|| 
D|--2---------------2--|--2--------------|| 
A|--2------2--2--2--2--|--2--------------|| 
E|--0------0--0--0--0--|--0--------------|| 
          PM.....| 

E|---------------------------------------|-----------------|| 
B|---------------------------------------|-----------------|| 
G|---------------------------------------|-----------------|| 
D|--4/5----------------------------------|--2--------------|| 
A|--4/5----2--2--2--2--2--2--2--2--2--2--|--2--------------|| 
E|--2/3----0--0--0--0--0--0--0--0--0--0--|--0--------------|| 
          PM..........................| 
	  

Search Paypal
auto scroll beats size up size down change color hide chords drawings
tab show chords e-chords YouTube Clip e-chords hide all tabs e-chords go to top tab