Metallica

home > Metallica

Cunning Stunts Kill - Ride Medley Tab

Metallica

Difficulty: BeginnerBeginner

by abelamin

tuner correct add songbook print version text version save to e-mail
chordsukulelecavacokeyboardtabbassdrumsharmonicsflute Guitar Pro
chords

Cunning Stunts Kill - Ride Medley

  		Play Four Times 
E |------------------------------------------------------------------------| 
B |--------7-----8---------------------------------------------------------| 
G |--------------------------7------9--------------------------------------| 
D |---------------------------------------------7-----9--------------------| 
A |---------------------------------------------------------------5-----7--| 
E |------------------------------------------------------------------------| 

Play Four Times                          Play Once 
E |-----------------------------|        E|------------| 
B |-----------------------------|        B|------------| 
G |--sl---------sl--------------| Then   G|------------| 
D |-7/8--------7/8--------------|        D|---10--9----| 
A |-7-8--------7-8--------------|        A|---10--9----| 
E |-5-6--0--0--5-6--0--0--0--0--|        E|---8---7----| 

Play Four Times                          Play Four Times 
E |-----------------------------|        E|----------------------------| 
B |-----------------------------|        B|----------------------------| 
G |--sl---------sl--------------| Then   G|----------------------------| 
D |-7/8--------7/8--------------|        D|------------------2-------5-| 
A |-7-8--------7-8--------------|        A|---4-----2----4---0---4---3-| 
E |-5-6--0--0--5-6--0--0--0--0--|        E|---2-----0----2-------2-----| 

Play Once 
E |----------------------------| 
B |----------------------------| 
G |----------------------------| 
D |------------------10---9----| 
A |-4----------------10---9----| 
E |-2----------------8----7----| 

Play Four Times                          Play Once 
E |-----------------------------|        E|------------| 
B |-----------------------------|        B|------------| 
G |-----------------------------| Then   G|------------| 
D |-7/8--------7/8--------------|        D|---8---7----| 
A |-7-8--------7-8--------------|        A|---8---7----| 
E |-5-6--0--0--5-6--0--0--0--0--|        E|---6---5----| 

Play Four Times                          Play Once 
E |-----------------------------|        E|------------| 
B |-----------------------------|        B|------------| 
G |-----------------------------| Then   G|------------| 
D |-7/8--------7/8--------------|        D|---8---7----| 
A |-7-8--------7-8--------------|        A|---8---7----| 
E |-5-6--0--0--5-6--0--0--0--0--|        E|---6---5----| 

Play Four Times 
E |-------------------------------| 
B |-------------------------------| 
G |-------------------------------| 
D |--/H---------/H--------------| 
A |--2-4---------2-4--------------| 
E |--2-----2--2--2-----2--2--2--2-| 

(Chorus) 
Play Two Times 
E |----------------------------------------------| 
B |----------------------------------------------| 
G |-6--------5--4--------6-----------------------| 
D |-6--------5--4--------6-----7--7--7--7--7--7--| 
A |-4--------3--2--------4-----7--7--7--7--7--7--| 
E |----------------------------5--5--5--5--5--5--| 

Play Two Times 
E |-------------------------------| 
B |-------------------------------| 
G |-------------------------------| 
D |--/H---------/H--------------| 
A |--2-4---------2-4--------------| 
E |--2-----2--2--2-----2--2--2--2-| 

E |----------------------------------------------| 
B |----------------------------------------------| 
G |-6--------5--4--------6-----------------------| 
D |-6--------5--4--------6-----7--7--7--7--7--7--| 
A |-4--------3--2--------4-----7--7--7--7--7--7--| 
E |----------------------------5--5--5--5--5--5--| 

Play once 
E |---------------------------------------| 
B |---------------------------------------| 
G |---9---8---7-------5-------4-----------| 
D |---9---8---7-------5-------4---5-------| 
A |---7---6---5-------3-------2---5-------| 
E |---------------6---3---4---2---3-------| 

Play Once4-------| 
D |------------------------------------------4-------| 
A |-2-4---4-4---4-2---2-2--2-4---4-4---4-2---2-------| 
E |-0-2---2-2---2-0---0-0--0-2---2-2---2-0-----------| 

Play Four Times 
E |----------------------------------------------------------------------| 
B |----------------------------------------------------------------------| 
G |-----------------------------5----------------------------------------| 
D |-----------------------------5----------------------------------------| 
A |-----5-7-----5-7-----5-7-----3---------5-7-----5-7-----5-7------------| 
E |-0-0-----0-0-----0-0-----0-0-------0-0-----0-0-----0-0-----5-6-7------| 

E |-----------------------| 
B |-----------------------| 
G |-----------------------| 
D |--2----2----2----2-----| 
A |--2----2----2----2-----| 
E |--0----0----0----0-----| 

(no remorse) 
Play Eight Times (Both Sections) 
E |--------------------------------------------------| 
B |--------------------------------------------------| 
G |------------------------------------------2-------| 
D |------------------------------------------2-------| 
A |-2-4---4-4---4-2---2-2--2-4---4-4---4-2---0-------| 
E |-0-2---2-2---2-0---0-0--0-2---2-2---2-0-----------| 

Play Two Times 
E |----------------------------------------------------------------------| 
B |----------------------------------------------------------------------| 
G |-----------------------------5----------------------------------------| 
D |-----------------------------5----------------------------------------| 
A |-----5-7-----5-7-----5-7-----3---------5-7-----5-7-----5-7------------| 
E |-0-0-----0-0-----0-0-----0-0-------0-0-----0-0-----0-0-----5-6-7------| 

(no guitars) 

War without end 
Play Four Times 
E |------------------------------| 
B |------------------------------| 
G |------------------------------| 
D |-5-------5-------5------------| 
A |-5-------5-------5------------| 
E |-3----0--3----0--3---0--3--0--| 
                                  Full 
(Chorus) 
Play Two Times             First     Second 
E |-------------------------|---------|--------| 
B |-------------------------|---------|--------| 
G |-------------------------|---------|--------| 
D |-------------------------|----sl---|---5----| 
A |-------10----9----7----5-|---5/7---|---5----| 
E |--0--0-----0----0----0---|-0-------|---3----| 

Play Two Times             First     Second 
E |-------------------------|---------|--------| 
B |-------------------------|---------|--------| 
G |-------------------------|---------|--------| 
D |-------------------------|----sl---|---5----| 
A |-------10----9----7----5-|---5/7---|---5----| 
E |--0--0-----0----0----0---|-0-------|---3----| 
Hit The Lights 

Tremelo Picking For The Whole Time 
E |-------------------------------------------------------------------| 
B |-------------------------------------------------------------------| 
G |-------------------------------------------------------------------| 
D |----2--------------------------------------------------------------| 
A |----2--------------------------------------------------------------| 
E |----0--------------------------------------------------------------| 

Tremelo Picking For The Whole Time 
E |-------------------------------------------------------------------| 
B |-------------------------------------------------------------------| 
G |-------------------------------------------------------------------| 
D |----4--------------------------------------------------------------| 
A |----4--------------------------------------------------------------| 
E |----2--------------------------------------------------------------| 

Part 1. Play Once 
E |-------------------------------------------------| 
B |-------------------------------------------------| 
G |----------------------------5---7--7-----0---5---|    1st Time - Part 2. 
D |----5-----------------------5---7--7-----0---5---|    2nd Time - Part 3. 
A |----0-----0--0--0--0--0--0-----------------------| 
E |-------------------------------------------------| 

Part 2. Play Once then back 
E |---------------------------------------------| 
B |---------------------------------------------| 
G |-----------------------/P-------------------| 
D |-----------------------7-5------5------------| 
A |----0--0--0--0--0--0---------7------6--7-----| 
E |---------------------------------------------| 

Part 3.  Play Once. 
E |-----------------------------------| 
B |---------------------------Full----| 
G |----------------------------7------| 
D |----------------------/H----------| 
A |----0--0--0--0--0--0--6-7----------| 
E |-----------------------------------| 

Part 1. Play Part 1 & 2 After each other (Two Times) 
E |-------------------------------------------------| 
B |-------------------------------------------------| 
G |----------------------------5---7--7-----0---5---| 
D |----5-----------------------5---7--7-----0---5---| 
A |----0-----0--0--0--0--0--0-----------------------| 
E |-------------------------------------------------| 

Part 2. Play Once then back 
E |---------------------------------------------| 
B |---------------------------------------------| 
G |-----------------------/P-------------------| 
D |-----------------------7-5------5------------| 
A |----0--0--0--0--0--0---------7------6--7-----| 
E |---------------------------------------------| 

E |--------------------------------------------------------| 
B |--------------------------------------------------------| 
G |----7---7-------------------7---7-------5---4-----------| 
D |----7---7-------5---5-------7---7-------5---4---5-------| 
A |----5---5-------5---5-------5---5-------3---2---5-------| 
E |----------------3---3---------------------------3-------| 
Then Part 1 & 2 Twice 

Play Once 
E |--------------------------------------------------------| 
B |--------------------------------------------------------| 
G |----7---7-------------------7---7-------5---4-----------| 
D |----7---7-------5---5-------7---7-------5---4---5-------| 
A |----5---5-------5---5-------5---5-------3---2---5-------| 
E |----------------3---3---------------------------3-------| 
Then Part 1 & 2 Once 

Play Once 
E |----------------------------------------------| 
B |----------------------------------------------| 
G |----9-------9-------------------5---4---------| 
D |----9-------9-------5---4---5---5---4---5-----| 
A |----7-------7-------5---4---5---3---2---5-----| 
E |--------------------3---2---3-----------3-----| 

(Chorus) 

Play Once 
E |--------------------------------------------------| 
B |--------------------------------------------------| 
G |--------------------------------------------------| 
D |-----2---2--------2---2--------2--2------5--------| 
A |-----0---0--------0---0--------0--0------3----5---| 
E |---------------3------------3-----------------3---| 
                                                    Play Once 
E |--------------------------------------------------| 
B |--------------------------------------------------| 
G |--------------------------------------------------| 
D |-----2---2--------2---2--------2--2------5--------| 
A |-----0---0--------0---0--------0--0------3----5---| 
E |---------------3------------3-----------------3---| 

Play Once 
E |--------------------------------------------------| 
B |--------------------------------------------------| 
G |--------------------------------------------------| 
D |-----2---2--------2---2--------2--2------5--------| 
A |-----0---0--------0---0--------0--0------3----5---| 
E |---------------3------------3-----------------3---| 

Play Once (then second verse)  Second Time Only 
E |----------------------------|-------------------------| 
B |----------------------------|-------------------------| 
G |----------------------------|-------------------------| 
D |-----2---2-----5-------2----|----5----4----3----2-----| 
A |-----0---0-----3---5---0----|----5----4----3----2-----| 
E |-------------------3--------|----3----2----1----0-----| 
               lights___. 

Play Seven Times    7th time 
E |-----|--------------|------------| 
B |-----|--------------|-----sl-----| 
G |-----|--------------|---109--9--| 
D |-----|--------------|---10-9--9--| 
A |-----|--------------|---8--7--7--| 
E |---0-|--0-0-0-0-0---|------------| 

Play Four Times         First        Second 
E |-----------------------|------------|--------------| 
B |-----------------------|--sl--------|--------------| 
G |-----------------------|--109--9---|---10--10-----| 
D |-----------------------|--10-9--9---|---10--10-----| 
A |-----------------------|--8--7--7---|---8---8------| 
E |--0---0-0-0-0--0-0-0-0-|------------|--------------| 

Play Once 
E |------------------------------------------------------------------------| 
B |------------------------------------------------------------------------| 
G |------------------------------------------------------------------------| 
D |--------------------------------------------------------------5---6---7-| 
A |--7--5-----5---------------------------7--5-----5-------------3---4---5-| 
E |--------7-----7--6--5--3--5--0--3--5---------7-----7--6--5--------------| 

Play Four Times 
E |------------------------------------------------------------| 
B |------------------------------------------------------------| 
G |------------------------------------------------------------| 
D |------------------3--2--0--2---------------5-----6-----7----| 
A |------------0--2---------------------------3-----4-----5----| 
E |---0---0-----------------------0---0---0------0-----0-------| 

Play Eight Times 
E |-------------------------------------------------------| 
B |-------------------------------------------------------| 
G |-------------------------------------------------------| 
D |--------------------------------------5-----6-----7----| 
A |--------------------------------------3-----4-----5----| 
E |---0--0--0--0--0--0--0--0--0--0--0-------0-----0-------| 

Play Once 
E |-------------------------------------------------------------| 
B |-------------------------------------------------------------| 
G |-------------------------------------------------------------| 
D |-------------------------------------------------------------| 
A |--7--5-----5---------------------------7--5-----5------------| 
E |--------7-----7--6--5--3--5--0--3--5---------7-----7--6--5---| 

(phantom Lord) 

Play Six Times 
E |------------------------|---------------------| 
B |------------------------|---------------------| 
G |------------------7--9--|---------------------| 
D |---7--9--9--9--9--5--7--|--7--9--9--9--9--7---| 
A |---5--7--7--7--7--------|--5--7--7--7--7--5---| 
E |------------------------|---------------------| 

Play Once 
E |-------------------------------------------------------------------| 
B |-------------------------------------------------------------------| 
G |-------------------------------------------------------------------| 
D |----7--------------------------------10------9-------5-------------| 
A |----7--------------------------------10------9-------5-------------| 
E |----5--------------------------------8-------7-------3-------------| 

Play Twice 
E |------------------------|---------------------| 
B |------------------------|---------------------| 
G |------------------7--9--|---------------------| 
D |---7--9--9--9--9--5--7--|--7--9--9--9--9--7---| 
A |---5--7--7--7--7--------|--5--7--7--7--7--5---| 
E |------------------------|---------------------| 

Play Once 
E |-------------------------------------------------------------------| 
B |-------------------------------------------------------------------| 
G |-------------------------------------------------------------------| 
D |----7--------------------------------10------9-------5-------------| 
A |----7--------------------------------10------9-------5-------------| 
E |----5--------------------------------8-------7-------3-------------| 
Play Twice 
E |------------------------|---------------------| 
B |------------------------|---------------------| 
G |------------------7--9--|---------------------| 
D |---7--9--9--9--9--5--7--|--7--9--9--9--9--7---| 
A |---5--7--7--7--7--------|--5--7--7--7--7--5---| 
E |------------------------|---------------------| 

Play Three Times 
E |---------------------------------| 
B |---------------------------------| 
G |---------------------------------|   Then 
D |----7----5----7------4----5------| 
A |----7----5----7------4----5------| 
E |----5----3----5------2----3------| 
Play Once 
E |---------------------------------| 
B |---------------------------------| 
G |---------------------------------|   Then 
D |----7----5----4------5----4------| 
A |----7----5----4------5----4------| 
E |----5----3----2------3----2------| 

Play Three Times 
E |---------------------------------| 
B |---------------------------------| 
G |---------------------------------|   Then 
D |----7----5----7------4----5------| 
A |----7----5----7------4----5------| 
E |----5----3----5------2----3------| 
Play Once 
E |---------------------------------| 
B |---------------------------------| 
G |---------------------------------|   Then 
D |----7----5----4------5----4------| 
A |----7----5----4------5----4------| 
E |----5----3----2------3----2------| 
After first verse   Play Twice  then start second verse. 
E |------------------------|---------------------| 
B |------------------------|---------------------| 
G |------------------7--9--|---------------------| 
D |---7--9--9--9--9--5--7--|--7--9--9--9--9--7---| 
A |---5--7--7--7--7--------|--5--7--7--7--7--5---| 
E |------------------------|---------------------| 

After second verse 
E |-------------------------------------| 
B |-------------------------------------| 
G |-------------------------------------| 
D |----2--------------------------------| 
A |----2--------------------------------| 
E |----0--------------------------------| 


(fight Fire With Fire) 

Play Three Times 
E |----------------------------------|--------------------------------|| 
B |----------------------------------|--------------------------------|| 
G||o---------------------------------|-------------------------------o|| 
D||o---------------------------------|-------------------------------o|| 
A |-------------5-----------------4--|-------------5-------4-------4--|| 
E |-0-0-0-0-0-0-3---0-0-0-0-0-0-0-2--|-0-0-0-0-0-0-3---0-0-2---0-0-2--|| 

Play Once 
E |----------------------------------|--------------------------------|| 
B |----------------------------------|--------------------------------|| 
G |----------------------------------|--------------------------------|| 
D |----------------------------------|--------------------------------|| 
A |-------------5-----------------4--|-------------5-------4-------3--|| 
E |-0-0-0-0-0-0-3---0-0-0-0-0-0-0-2--|-0-0-0-0-0-0-3---0-0-2---0-0-1--|| 

Play Four Times 

E |----------------------------------|--------------------------------|| 
B |----------------------------------|--------------------------------|| 
G||o---------------------------------|-------------------------------o|| 
D||o---------------------------------|-------------------------------o|| 
A |-------------5-----------------4--|-------------5-------4-------4--|| 
E |-0-0-0-0-0-0-3---0-0-0-0-0-0-0-2--|-0-0-0-0-0-0-3---0-0-2---0-0-2--|| 

             Play Once 
E |----------------------------------|--------------------------------|| 
B |----------------------------------|--------------------------------|| 
G |----------------------------------|--------------------------------|| 
D |----------------------------------|--------------------------------|| 
A |-------------5-----------------4--|-------------5-------4-------3--|| 
E |-0-0-0-0-0-0-3---0-0-0-0-0-0-0-2--|-0-0-0-0-0-0-3---0-0-2---0-0-1--|| 
Play Once 
E |---------------------------------|---------------------------------|| 
B |---------------------------------|---------------------------------|| 
G |---------------------------------|---------------------------------|| 
D |---------------------------------|---------------------------------|| 
A |--------------------------4---5--|-----------------4------4--------|| 
E |---0--3---5p0-0-0-3---0-0-2---3--|-0---3---5p0-0-0-2------2--------|| 
              ______. 

Play Once 
E |----------------------------------|---------------------------------|| 
B |----------------------------------|------------------------r--------|| 
G |----------------------------------|------------------------e--------|| 
D |----------------------------------|------------------------s--------|| 
A |--------------------------4---5---|-----------------4------t--------|| 
E |---0--3---5p0-0-0-3---0-0-2---3---|-0---3---5p0-0-0-2---------------|| 

Play Four Times 
E |----------------------------------|----------------------------------| 
B |----------------------------------|----------------------------------| 
G |----------------------------------|----------------------------------| 
D |-------5-----------3-----4-----3--|----------------------------------| 
A |-2-----5-----------1-----2-----1--|-1-1-1-1-1-1-1-1-1-1-1-1-1-1-1-1--| 
E |-0-----3-----0--------------------|----------------------------------| 
             Play Eight Times 
E |----------------------------------|| 
B |----------------------------------|| 
G||o--------------------------------o|| 
D||o------------------3-----4-----3-o|| 
A |-2-----5-----------1-----2-----1--|| 
E |-0-----3-----0--------------------|| 

Play Eight Times 
E |----------------------------------|| 
B |----------------------------------|| 
G||o--------------------------------o|| 
D||o------------------3-----4-----3-o|| 
A |-2-----5-----------1-----2-----1--|| 
E |-0-----3-----0--------------------|| 

and end it of with the ride the lightning bit 
E |------------------------------------------------------------------------| 
B |--------7-----8---------------------------------------------------------| 
G |--------------------------7------9--------------------------------------| 
D |---------------------------------------------7-----9--------------------| 
A |---------------------------------------------------------------5-----7--| 
E |------------------------------------------------------------------------| 
	  

Search Paypal
auto scroll beats size up size down change color hide chords drawings
tab show chords e-chords YouTube Clip e-chords hide all tabs e-chords go to top tab