Metallica

home > Metallica

Cunning Stunts Doodle Tab

Metallica

Difficulty: nolevelnolevel

by abelamin

tuner correct add songbook print version text version save to e-mail
chordsukulelecavacokeyboardtabbassdrumsharmonicsflute Guitar Pro
chords

Cunning Stunts Doodle

  		1) 
Eb|--------------------------------5~~----------5~~---------- 
Bb|------------5~~----5~~-------------5~~----------5~~------- 
Gb|---------5~~----------7~~5~~7~~~------5~~----------5~~7~~~ 
Db|--7~~~7~~------7~~~----------------------7~~~------------- 
Ab|---------------------------------------------------------- 
Eb|---------------------------------------------------------- 
guitar riff (neck pickup overdriven w/ wah) (MFoM) 
                             full 
2)                             ^V 
Eb|---------------------------------------------- 
Bb|--------5~~----------------------------------- 
Gb|-----5~~------5~-------------7-5-------------5 
Db|--7~~------7~~--5~~~---------7-5----------/7-- 
Ab|-----------------------2~~----------2~~------- 
Eb|--------------------3~~---5~~----3~~---5~~---- 

3) 
Eb|-----------8h9p8h9p8------------------------- 
Bb|---------------------------------------------- 
Gb|------------------------------------------9~~- 
Db|------------------------------------6~~9~~---- 
Ab|-----2~~----------------2~~------7~~---------- 
Eb|--3~~---5~~----------3~~---0--7~~------------ 

04)    harm*               *****             *****  *****  ***   ******** 
Eb|----12-----3--3h5p3p2---12-----2-2-3-0----12-----12-----7-----12------ 
Bb|-------12-----0------------12----0-----------12-----12----7------12--- 
Gb|--------------------------------------------------------------------12 
Db|---------------------------------------------------------------------- 
Ab|---------------------------------------------------------------------- 
Eb|--0--------------------0----------------0-------0-----0-----0--------- 
Clean guitar 

5) 
Eb|----------------------------------------- 
Bb|----------------------------------------- 
Gb|--------0-------0-------0---------------- 
Db|------4-------5-------7-------0-----0---0 
Ab|----2-------3-------5-------4-----2------ 
Eb|--0-------0-------0-------5-----3-----5-- 
	  

Search Paypal
auto scroll beats size up size down change color hide chords drawings
tab show chords e-chords YouTube Clip e-chords hide all tabs e-chords go to top tab