Metallica

home > Metallica

Funeral March Of A Marionette Tab

Metallica

Difficulty: ExpertExpert

by victor%2Eh

tuner correct add songbook print version text version save to e-mail
chordsukulelecavacokeyboardtabbassdrumsharmonicsflute Guitar Pro
chords

Funeral March Of A Marionette

  		e--------------------------------------------------- 
B--------------------------------------------------- 
G--------------------------------------------------- 
D--//--7-7-5-7-8-7-5---5-5-4-5-7-4-----------------5 
A----------------------------------5---8-8-7-5-7-8-- 
E--------------------------------------------------- 
 
Rythm guitar 
D--2-7--X--X--X--               -2--7--9--10---- 
A--0-5--X--X--X--  three times  -0--5--7--8---10 
E----------------               --------------8- 
 
Lead guitar 
e---------------------------------- 
B---------------------------------- 
G----7-7-7-6---6-7-9----7-7-7-6---6 
D--7---------9--------7---------9-- 
A---------------------------------- 
E---------------------------------- 
This is the main riff, sometimes with artificial harmonics or wah. 
 
e-------------------------------12-----9h12p9----------- 
B------10----------13-----10-10----12---------9h12p9-7-- 
G--7-7----9--10-10----12-------------------------------7 
D------------------------------------------------------- 
A------------------------------------------------------- 
E------------------------------------------------------- 
The rising part.  At the end instead of playing the sale 
back down, just trill the 9-12 on the high E. 

	  

Search Paypal
auto scroll beats size up size down change color hide chords drawings
tab show chords e-chords YouTube Clip e-chords hide all tabs e-chords go to top tab